Аккорды «Hollywood Undead»

Hollywood Undead
Hollywood Undead (приблизительный перевод с англ. Голливудская нежить) — альтернативная рок-группа из Лос-Анджелеса, образованная в 2005 году. Они записали свой дебютный альбом «Swan Songs» 2 сентября 2008 года, и их сборник живых выступлений «Desperate Measures» — 10 ноября 2009 года. Раньше участники группы носили маски, чтобы скрыть свою внешность от окружающих, однако в последнее время они одевают маски только на несколько первых песен концертов, а также для фотографий и клипов. В интервью… Читать полностью... Hollywood Undead (приблизительный перевод с англ. Голливудская нежить) — альтернативная рок-группа из Лос-Анджелеса, образованная в 2005 году. Они записали свой дебютный альбом «Swan Songs» 2 сентября 2008 года, и их сборник живых выступлений «Desperate Measures» — 10 ноября 2009 года. Раньше участники группы носили маски, чтобы скрыть свою внешность от окружающих, однако в последнее время они одевают маски только на несколько первых песен концертов, а также для фотографий и клипов. В интервью журналу «Shave Magazine» Джей-Дог пояснил: «Кто бы ни был в группе, главное, чтобы он играл на инструменте». Шэйди Джефф позднее ушёл из группы и в ней остались шесть участников. К ноябрю 2008 года у группы было более, чем 440.000 друзей на MySpace. Hollywood Undead дебютировали в августе 2008 на «Virgin Mobile Festival», где выиграли с общим количеством в 285.000 голосов. Их песня "Undead", частично семплированная с песни Оззи Осборна «Crazy Train», является саундтреком к видеоиграм «Madden NFL 09» и «UFC 2009 Undisputed», она была выпущена 19 августа 2008 года и вошла в альбом «Swan Songs», а также является одним из 20 бонусных треков к игре «Rock Band 2»; кроме того песня присутствует в трейлерах к фильмам «Бросок кобры» и «Конан-Варвар». Песня «Young» является саундтреком к трейлеру игры «Velvet Assassin». Песня «Levitate» является саундтреком к игре "Shift 2: Unleashed". «Swan Songs», достиг позиции 22 в рейтинге «Billboard 200». В первую неделю продажи альбома было распродано 21.000 копий. 23 июня 2009 года, Hollywood Undead выпустили «Swan Songs B-Sides EP» в цифровом сервисе iTunes. В конце 2009 года возникли разногласия среди участников группы. После того, как Дьюс отказался принимать участие в туре, к группе присоединился Дэниэл Мурилло, чтобы помочь группе. Перед Рождеством на официальном фан-сайте группы появилось потверждение от Джонни 3 Тирс, что Дьюс более не является участником группы. 5 апреля 2011 года официально вышел второй студийный альбом группы — "American Tragedy". Улицы Голливуда вымощены мечтами. Большинство из этих мечтаний разбиты, другие — погребены, некоторые попросту сгорели. На своём новом альбоме "American Tragedy" Hollywood Undead раскрыли тему этих мечтаний с помощью яркого и энергичного хип-хопа, великолепного тяжёлого звучания и заводной танцевальной музыки. В сердце второго релиза от "A&M/Octone" 6 музыкантов — Джонни 3 Тирс, Джей-Дог, Чарли Син, Да Курлзз, Фанни Мэн и Дэнни – рифмуют обо всём: начиная с острой и весёлой читки о праздности клубов, заканчивая глубокомысленными размышлениями о потере веры и борьбе с наркоманией. Выходящий 5 апреля 2011 года, альбом "American Tragedy" смотрит на гибель американской мечты с крыши самой горячей вечеринки в мире. Второй альбом от Hollywood Undead – убежище для тех, кто разрушил иллюзии жизни, для тех, с чьей помощью первый альбом приобрёл статус золотого. Альбом – средний палец безопасности и обременительным «нормам». Он – будущее тяжёлой поп-музыки. Hollywood Undead смотрели в будущее ещё с момента первого выхода на сцену со своим ошеломительным дебютом 2008 года – альбомом "Swan Songs". "Swan Songs" превысил по продажам отметку в 800.000 копий по всему миру и быстро приобрёл статус платинового. Группа отправилась в двухлетнее мировое турне, включающее в себя огромное количество разнообразных шоу, в том числе такой престижный фестиваль, как "Download Festival" в Великобритании. Их первый сингл "Undead" приобрёл известность благодаря трейлеру к популярному фильму кинокомпании Paramount Pictures «G.I. Joe: The Rise of Cobra» («Бросок кобры») и саундтреку к игре Madden NFL 2009. В 2009 году группа выпустила "Desperate Measures DVD/CD", запечатлевшего все их завораживающие безумства на сцене. В сборник также входили несколько неизданных песен и несколько кавер-версий. Впрочем, всё это служит лишь прелюдией к альбому "American Tragedy". Hollywood Undead начали создавать "American Tragedy" в начале 2010. В сотрудничестве с такими продюсерами как Дон Гилмор, Гриффин Бойс и S*A*M & Sluggo, группа получила возможность творить во всевозможных стилях, выпуская музыку рискованную и отличную от выпускаемой ранее. Первый сингл из нового альбома, "Hear Me Now", – катарсис гитар и синтезаторов, приукрашенный шестью отличными голосами. "Been to Hell" переходит от зловещей бас-партии в выносящий мозг припев. "I Don't Wanna Die" — похоронный марш для всех врагов на пути Hollywood Undead. "Comin' in Hot" отлично подошла бы к любому танцполу благодаря острой читке. И "Levitate" легко вплывает в основное популярное музыкальное течение со своим взмывающим ввысь припевом. Для Hollywood Undead, "American Tragedy" является следующим шагом развития. Рассказывая о втором альбоме группы, Джей-Дог говорит: "Подобно нашему первому альбому, в "American Tragedy" есть что-то для каждого. В некоторых песнях больше трогательных ноток, другие намного тяжелее. Мы хотим расширить нашу творческую палитру, вырасти как группа. Мы написали наш первый альбом годами ранее. Если подумать, мы уже не такие, какими были тогда. Стали лучше в плане текстов и музыки. Хотим больше экспериментировать и привнести что-то новое. Альбом в каком-то плане тяжелее, так как мы в первую очередь рок-группа". Джонни 3 Тирс продолжает: ""American Tragedy" — это то, из чего состоит Hollywood Undead. Мы можем внести что угодно в наши песни. Этому ничто не препятствует. Мне нравятся песни, которые нацелены против системы. Мне не хочется сохранять статус-кво в творчестве. Мы сами выбираем, каков будет наш следующий шаг". "Hear Me Now" кратко излагает это чувство. В сочетании рока и рэпа, песня получилась едким и порочным ударом. Все шесть участников сидели на корточках в репетиционной комнате, сочиняя "Hear Me Now" вместе. Песня — олицетворение всех особенностей их личностей. 21 декабря группа официально выпустила "Hear Me Now" на iTunes, и, спустя два дня, песня достигла второго места в рок-чарте iTunes. Песня охватывает текущее положение дел, призывая слушателей быть во всеоружии. "Безусловно, "Hear Me Now" — песня-борьба", — говорит Джонни 3 Тирс. "Все проходят через трудные времена, и песня предназначена как раз для таких периодов в жизни. Мы стремились написать то, что можно петь в одиночестве, и, как мне кажется, у нас это получилось". Песня, которая описывает безнадёжность, — бьющая в цель "Been to Hell". Группа высказывает своё мнение о неудавшихся стремлениях между яростными ритмами и гневными рифмами. "Мы выросли в Лос-Анджелесе и видели множество людей, которые приезжали сюда с грандиозными амбициями и в 99,9 случаев они нихрена не делали", — продолжает Джей-Дог. "Они ходят на тусовки, подсаживаются на наркотики, а потом просто сваливают домой. На этом всё. Нужно преодолеть эти препятствия, чтобы действительно исполнить свою мечту. Эта песня о том, что надо поднять задницу и трудиться навстречу более высоким достижениям. Надеюсь, она вдохновит кого-нибудь выполнить то, о чём он только говорит". Hollywood Undead продолжает работать на износ. На каждом шоу в турне они выкладываются до потери пульса для встречи с самыми преданными фанатами по всему миру. Нет сомнения, что каждый трек на альбоме "American Tragedy" найдёт свой отклик у фанатов. «У людей сейчас наступили тяжёлые времена и у детей точно такие же проблемы повсеместно, — отмечает Джей-Дог. — Я счастлив, что они приходят на наши концерты, это позволяет им на час отвлечься от проблем». Такие песни как "Levitate" и "Street Dreams" показывают Hollywood Undead с абсолютно другой стороны. Не только чувство юмора группы осталось неизменным, но также и мастерство в исполнении поп-музыки, которое просто неоспоримо. О присутствии стольких стилей Джонни 3 Тирс говорит: «Я хочу, чтобы фанаты чувствовали, что они потратили свои деньги на что-то стоящее, на альбом, который нельзя определить к какому-либо стилю. Это шаг вперёд. Мы хотим быть группой, которая особенна для всех. Мы хотим петь о том, что они чувствуют. Я бы хотел, чтобы они испытывали те же чувства, которые в детстве испытывал я, слушая Korn и Nine Inch Nails». Этот революционный дух проходит через весь альбом "American Tragedy" и группа снова вложила в музыку всю душу. Джей-Дог подводит итог: «Как группа, мы работали потом и кровью, вложив душу в этот альбом. Мы бы не смогли сделать его ещё лучше и нам это нравится. Мы честны и дети чувствуют это. Они знают, что мы не будем вешать им лапшу на уши. Когда ты честен с собой, люди к тебе тянутся». Состав: Текущие участники: Чарли Свин (Charlie Scene) – вокал, соло-гитара (с 2005) Да Курлык (Da Kurlik) – ударные, перкуссия, скрим (с 2005) Дэнни [ (Danny) – чистый вокал (с 2009) Джей-Доги-стайл (J-Dog) – ритм-гитара, клавишные, синтезаторы, программирование, вокал (с 2005); бас-гитара (с 2011) Джонни 3 Тирс (Johnny 3 Tears) – вокал, скрим (с 2005) Фанни Мэн (Funny Man) – вокал (с 2005) Бывшие участники: Дьюс Глиномес (Deuce) – вокал (2005–2010) Шэйди Джоник Македонский (Shady Jeff) – вокал, продюсирование (2005–2007) Тур-участники: Дарен Пфайфер (Daren Pfeifer) – ударные (с 2010) Бывшие тур-участники: Бисквитц (Biscuitz) – ударные (2008–2010) Дискография: Студийные альбомы: 2008 — Swan Songs 2011 — American Tragedy Сборники: 2009 — Desperate Measures EPs: 2008 — Undead/No. 5 2009 — Swan Songs B-Sides 2010 — Swan Songs Rarities 2010 — Black Dahlia Remixes Ремиксовые альбомы: 2011 — American Tragedy Redux Синглы: 2008 — Undead 2009 — Young 2009 — Everywhere I Go 2009 — Black Dahlia 2010 — Hear Me Now 2011 — Been to Hell 2011 — Coming Back Down 2011 — Comin' in Hot 2011 — My Town 2011 — Bullet 2011 — Levitate Музыкальные видеоклипы: 2005 — No. 5 2008 — No. 5 2008 — Undead 2009 — Young 2010 — Everywhere I Go 2011 — Hear Me Now 2011 — Been to Hell 2011 — Comin' in Hot 2011 — Levitate (Digital Dog Club Mix) Скрыть...
Популярные аккорды Hollywood Undead:
алфавиту | просмотрам | случайно
  • Intro 1:
    
    E|--------------------------------------------------------------|
    B|--------------------------------------------------------------|
    G|--------------------------------------------------------------| Play 5
    D|--------------------8----8-8----8-7---7-7---7-7---7-7-7-7-----|…
  • Intro:
    
    e|--3---------3-----3------------3------2-----------2----2-----7-------------|
    B|------------------------------------------0--------------------------------|
    G|-----0----------------0-----------------------0----------------------------|
    D|--------0-----------------0------------------------------------------------|
    A|---------------------------------------------------------------------------|
    E|--0---------------0-------------------0----------------0-----0-------------|
    
    e|--0--------0----0--------0----2---------2----2---------2-------------------|
    B|---------------------------------------------------------------------------|
    G|-----0-------------0--------------0--------------0-------------------------|
    D|--------0-------------0--------------0--------------0----------------------|
    A|---------------------------------------------------------------------------|
    E|--0-------------0-------------0--------------0-----------------------------|
    
    
    Chorus:
    
    Em…
  • Chorus (Danny):
                 Em
    I can't believe.
                    C
    That when I breathe.
              G                
    There's something good inside of me.
         D
    Just one good thing inside of me.
                Em
    So…
  • /=slide
    ~=let ring
    
    
    E--------------------------------------|
    B--------------------------------------|
    G---4/5-4-2-0-2~----4/5-4-2-0-4--------|
    D-------------------------------2~-----|
    A--------------------------------------|
    E--------------------------------------|
    
    Repeats…
  • P-S- Dont forget to tune in Drop D
    
    Intro & Main Riff :
    
    e|-------------------------------------------------|
    B|-------------------------------------------------|
    G|-------------------------------------------------|
    D|--2-x-2~-----9-7-5~--2-5-7~----------------------|
    A|--2-x-2~-----9-7-5~--2-5-7~----------------------|
    D|--2-x-2~-----9-7-5~--2-5-7~----------------------|
    
    
    Verse…
  • Capo 4
    
    Chorus:
    C
    My legs are dangling off the edge
    G
    The bottom of a bottle is my only friend
    Am
    I think I'll slit my wrists again and I'm
    F
    Gone, gone, gone, gone
    
    C
    My legs are dangling off the edge,
    G
    A…
  • E|-------------------------------------------------|
    B|---------8----------8---------9---------9------|
    G|------8---8-----8---8-----8---8-----8---8---|
    D|---10--------10--------10--------10---------|
    A|-------------------------------------------------|
    E|-------------------------------------------------|…
  • ***Chords in parentheses () are optional because they are not actually played***
    
    
    [Charlie Scene:]
    
             C
     Can you see me, my love?
    
     Up there above?
                   Am
     When you were dying,
           G
     I…
  • Intro: Em, C, G, D x4
    
    
    Verse 1:
         Em
    As I walk through the valley of the shadow of death,
              C
    I wear my crown of thorns and pull the knife out my chest.
           G
    I keep searching for something that I…
  • CHORUS:
         Bm
    We are young
            D
    But we have heart
             G               A
    Born in this world as it all falls apart
         Bm
    We are strong
           D
    We don't belong
             G               A
    Born in this…
  • E------------------------------|
    B------------------------------|
    G------------------------------|
    D------------------------------|
    A---------------5--------------|
    D---3--5--6--3-----5-6-0---560-|
  • Guitar 1 Rhythmic (C# G# C# F# A# D#)
    Guitar 2 Lead     (C# G# C# F# A# D#)
    
    NOTE: This was exported off of guitar pro.
    
    
    Guitar 1
    
         W                            E  E   E  E    E    E   E   E   
    E||-------------------|-------|----------------------------------|
    B||-------------------|-------|--10--L--10--L---11----L--11---L--|
    G||-------------------|-------|------7---L--7--(10)--10---L--10--|
    D||-------------------|-------|----------------------------------|
    A||-------------------|-------|----------------------------------|
    D||-------------------|-------|----------------------------------|…
  • Tuning: Standard (eADGBE)
    In the Key of: D Minor
    
    
    | INTRO |
    
    
    Guitar 1:
    
    e|---------------------12---17------------12--17----|
    B|--------------15-------------15------15-----------|
    G|--------------------------------------------------|…
  • Note: Listen to the song for exact placement and strum pattern of chords. 
    
    (Chorus)
    Danny:
     C                                     Em    
    Pour me, pour me, pour me another
     Am                                      F…
  • |--------------------------------------------------------------------|
    |--------------------------------------------------------------------|
    |--------------------------------------------------------------------|
    |-7-7-7-7-7-7-7-7-9-9-9-9-9-9-9-9-10-10--10-10--10--12-12--12-12--12-|
    |-7-7-7-7-7-7-7-7-9-9-9-9-9-9-9-9-10-10--10-10--10--12-12--12-12--12-|
    |-5-5-5-5-5-5-5-5-7-7-7-7-7-7-7-7--8--8---8--8---8--10-10--10-10--10-|
    
    |---------------------------------------------------------------------------|
    |---------------------------------------------------------------------------|
    |---------------------------------------------------------------------------|
    |-7-7-7-7-7-7-7-7-9-9-9-9-9-9-9-9-10-10--10-10--10--12-12-12-12-12-12-12-12-|
    |-7-7-7-7-7-7-7-7-9-9-9-9-9-9-9-9-10-10--10-10--10--12-12-12-12-12-12-12-12-|
    |-5-5-5-5-5-5-5-5-7-7-7-7-7-7-7-7--8--8---8--8---8--10-10-10-10-10-10-10-10-|…
  • Tuning: Standart D (DGCFAd)
    
    Main Riff:
    
    e|---------------------|
    B|---------------------|
    G|---------------------|
    D|---------------------|
    A|------1--------1-----|
    E|--3--3-3-3-1333-3-3--|
    
    
    Main Melody:
    
    e|-----------------------15-|
    B|-----15-13----13----------|
    G|--12-------12----15-12----|
    D|--------------------------|…
  • Tuning:Standard
    
    
    
    
            G        D        A        Bm (or D?)
    e|-----------------------------------------------|
    B|--------3--------3--------2--------3-----------|
    G|------0--------2--------2--------4-------------|
    D|-------------0--------2------------------------|
    A|-------------------------------2---------------|
    E|----3------------------------------------------|
    
    
    G…
  • Standard tuning
    this one's easy...
    
    
       A#-major     3F        g-minor    F-major
    ----6-----------5-----------3----------1---------------------------------|
    ----8-----------8-----------5----------3---------------------------------|
    ----8-----------7-----------5----------3---------------------------------|
    ----7-----------x-----------3----------2---------------------------------|
    ----6-----------x-----------3----------1---------------------------------|
    ----6-----------x-----------3----------1---------------------------------|
    
    Merry…
  • verse   
    e|---------------------------------------------------------------|
    b|---------------------------------------------------------------|
    g|---------------------------------------------------------------|x4
    d|---------------------------------------------------------------|
    a|---------------------------------------------------------------|
    d|-------5-3-5--5-3-0--5-3-5--5-3-0--5-3-5--5-3-0--5-3-5-0-00-1-2|
    pre-chorus
    e|------------------------------------------|
    b|------------------------------------------|
    g|------------------------------------------|x2
    d|------------------------------------------|
    a|------------------------------------------|
    d|-5-3-5----5-3-5----5-3-5----5-3-5-0-00-1-2|
    
    chorus
    e|--------------------------------------------------------------------|
    b|---------------55555555-77777777-------------------55555555-77777777|
    g|---------------55555555-77777777-------------------55555555-77777777|
    d|-5~~~-00000000-33333333-55555555-55555555-00000000-33333333-55555555|
    a|-5~~~-00000000-------------------55555555-00000000------------------|
    d|-5~~~-00000000-------------------55555555-00000000------------------|
    
    verse
    e|----------------------------------------------------|
    b|----------------------------------------------------|
    g|----------------------------------------------------|
    d|----------------------------------------------------|x4
    a|----------------------------------------------------|
    d|-5-3-5--5-3-0--5-3-5---5-3-5--5-3-0--5-3-5-0-00-1-2-|
    
    pre-chorus
    e|---------------------------------------|
    b|---------------------------------------|
    g|---------------------------------------|
    d|---------------------------------------|x2
    a|---------------------------------------|
    d|5-3-5---5-3-5---5-3-5---5-3-5-0-00-1-2-|
    
    chorus
    e|-------------------------------------------------------------------------|
    b|-------------------55555555-77777777-------------------55555555-77777777-|
    g|-------------------55555555-77777777-------------------55555555-77777777-|
    d|-55555555-00000000-33333333-55555555-55555555-00000000-33333333-55555555-|
    a|-55555555-00000000-------------------55555555-00000000-------------------|
    d|-55555555-00000000-------------------55555555-00000000-------------------|
    
    bridge
    e|-------------------------------------|
    b|-------------------5-5-5~~~-7-7-7~~~-|
    g|-------------------5-5-5~~~-7-7-7~~~-|
    d|-5-5-5~~~-0-0-0~~~-3-3-3~~~-5-5-5~~~-|x3
    a|-5-5-5~~~-0-0-0~~~-------------------|
    d|-5-5-5~~~-0-0-0~~~-------------------|
    
    chorus
    e|--------------------------------------------------------------------|
    b|-------------------55555555-77777777-------------------55555555-7~~~|
    g|-------------------55555555-77777777-------------------55555555-7~~~|
    d|-55555555-00000000-33333333-55555555-55555555-00000000-33333333-5~~~|
    a|-55555555-00000000-------------------55555555-00000000--------------|
    d|-55555555-00000000-------------------55555555-00000000--------------|…
  • C#m      F#m
    Get-get-get drunk, let's
    G#       C#m
    Get-get-get drunk, let's
    Get-get-get drunk, let's
    Get-get-get...
    
    [Chorus]:
    
    C#m  F#m           G#
    California show me love
                     C#m
    Get buzzed, let's…
  • (Tab Legend at bottom)
    Guitar 1 Rhythmic (C G C F A D)
    Guitar 2 Lead     (C G C F A D)
    
    Intro
    
    
    
    Guitar 1 & 2 (Fade In)
    D---------------------------------------|---------------------------------------|
    A---------------------------------------|---------------------------------------|
    F---------------------------------------|---------------------------------------|
    C---------------------------------------|----------------------9~~~~~~~~~~~~~~~-|
    G---------------------------------------|----------------------9~~~~~~~~~~~~~~~-|
    C---------------------------------------|----------------------9~~~~~~~~~~~~~~~-|
    
    
    
    Chorus…
  • e|-------------------------|----------------------------|
    b|-------------------------|----------------------------|
    g|-------------------------|----------------------------|
    d|----4--6--7--9--7--6--0--|------6--7------------------|
    a|-------------------------|------------4---------------|
    e|-------------------------|----------------------------|…
  • [Intro]
    
    G|--6-----6----|--5-----5---|-3-----3-----3-----5------|  2X
    D|-----8-----8-|-----6----6-|----4-----4-----4-----6---|
    
    [Chorus:]
    Bm
    I don't wanna die, I don't wanna die
    F#                   G#  
    I don't…
  • e----------------------------------------|
    a----------------------------------------|
    g----------------------------------------|
    d--3-3-3--5-3----------------------------|
    a--3-3-3--5-3----------------------------|
    e--1-1-1--3-1----------------------------|…
  • Tuning: Standart D (DGCFAd)
    
    VERSES:
    
    Rhythm & Lead Guitar:
    e|------------------------------------------------------------------|
    B|------------------------------------------------------------------|
    G|------------------------------------------------------------------|
    D|------------------------------------------------------------------|
    A|--4--44444444442--4--44444444442--4--44447777772--4--444444444444-|
    E|--2--22222222220--2--22222222220--2--22225555550--2--222222222222-|…
  • #1
    ----------------------------|
    ----------------------------|
    ----11-----9----7----5------|
    ----11-----9----7----5------|
    ----------------------------|
    -9-9---7-7---55---33--------|(x4)
    #2
    -----------------------------------|
    -----------------------------------|
    -6-6-[6-6-6]-----8-8-[8-8-8]----6~-|
    -6-6-[6-6-6]-----8-8-[8-8-8]----6~-|
    -4-4-[4-4-4]-(x4)6-6-[6-6-6](x1)4~-|
    -----------------------------------|(x1)
    #3
    ----------------------------|
    ----------------------------|
    -10-10-8-8-6-6-5-5-3--------|
    -10-10-8-8-6-6-5-5-3--------|
    -8--8--6-6-4-4-3-3-1--------|
    ----------------------------|(x1)
    #4
    ----------------------------|
    ----------------------------|
    ----11-----9----7----5------|
    ----11-----9----7----5------|
    ----------------------------|
    -9-9---7-7---55---33--------|(x4)
    #5
    ----------------------------|
    ----------------------------|
    ----10----8-----6-----4-----|
    ----10----8-----6-----4-----|
    ----------------------------|
    -8-8---6-6---4-4---2-2------|(x4)
    
    #6
    ----------------------------|
    ----------------------------|
    ----9-----7-----5-----3-----|
    ----9-----7-----5-----3-----|
    ----------------------------|
    -7-7---5-5---3-3---1-1------|(x4)
    #7
    ----------------------------|
    ----------------------------|
    ----8-----6-----4---3-3-----|
    ----8-----6-----4---3-3-----|
    ----------------------------|
    -6-6---4-4---2-2---1--------|(x4)
    
    #8
    ----------------------------------|
    ----------------------------------|
    ------12-------10--------8------6-|
    --------12-------10-----8------6--|
    ----------------------------------|
    -10-10------8-8------6-6----4-4---|(x3)
    #9
    ----------|
    ----------|
    --11------|
    --11------|
    ----------|
    -9--------|(x4)maybe…
  • Интро в начале-
    e|--15-15-15--13----------------------------------------------------|
    B|---------------*15----16-16-16-16-13-*15----16-16-16--13-15-15-15-|
    G|------------------------------------------------------------------|
    D|------------------------------------------------------------------|
    A|------------------------------------------------------------------|
    D|------------------------------------------------------------------|
    
    e|-------------------------|
    B|--11--13-13-13---10-*8---|
    G|-------------------------|
    D|-------------------------|
    A|-------------------------|
    D|-------------------------|
    
    Em…
  • Capo 1
    If you don't have a capo you can yet play it by using the following 4 chords:
    Gm - D# - F - Cm
    
    Intro:
    E-----------------------------------------------|
    B-----------------------------------------------|
    G-----------------------------------------------|…
  • Just play these throughout the entire song:
    Am F Dm E
    
    
    
      Am                               F
    I look alive, I'm dead inside. My heart has holes and black blood flows.
          Dm                                    E
    We'll…
  • This is played throughout the whole song with a fuck load of distortion
    |------------------------------|
    |------------------------------|
    |------------------------------|
    |--------7-/-5---------7-/-5---|
    |-2--2-2-5-/-3--2--2-2-5-/-3---|
    |-0--0-0--------0--0-0---------|…
  • Fm / Db /  | Ab / Eb /  | cont....sim...till *
    Let's watch it burn
    Let's watch it burn
    Let's watch this city burn the world
    
    Let's watch this city burn from the sky over top the world
    Til there's nothing left of her…
  • e|----------------------------------|
    B|----------------------------------|
    G|----------------------------------|
    D|-----10-10----8-8----6-6---5-5-5--|
    A|-----10-10----8-8----6-6---5-5-3--|
    E|-----8--8-----6-6----4-4---3-3-3--|
    
    And…
  • Drop D tuning.
    Intro: (Follow the bass rhythm to get the timing).
    e----------------------------------|
    B----------------------------------|
    G--------------------------2-2-2---|
    D-----0-0-0--3-3-3--5-5-5--2-2-2---|…
  • It's this riff throughout the whole song
    |------------------------------------|
    |------------------------------------|
    |------------------------------------|
    |-0-0-7-0-8-0-7-0--------------------|
    |-----------------10-8-7-8-10-8-7----|
    |---------------------------------10-|
    
    |------------------------------------|
    |------------------------------------|
    |------------------------------------|
    |-0--0-------------------------------|
    |-0--0-------------------------------|
    |-0--0-------------------------------|…
  • Capo: None Strum Pattern: D-D-D-U Chords used: Em,C,G,D , Am
    
    
    [Johnny 3 Tears:]
    Em                  C               G 
    So anybody froze in the alley of scars
    
          D              Em                 C         
    Mama,…
  • Guitar 1
    e -----------------------------------------------------------------|
    b -----------------------------------------------------------------|
    g -----------------------------------------------------------------|
    d…
  • Intro: D, F 2x, G and D, E with e Guitar
    
          D                             E
    I can't see because I'm staring at a blank wall (Blank wall)
           D                                   E
    I can't breathe because my fucking…
  • Tunning: Drop D
    D A D G B e
    
    Intro:
    
    e|-----15------13------|-15--18--20--18-|-13--15---------|
    B|-13------16------13--|----------------|---------13-----|
    G|---------------------|----------------|----------------|
    D|---------------------|----------------|----------------|
    A|---------------------|----------------|----------------|
    D|---------------------|----------------|----------------|
    
    
    Verse/Chorus…
  • Capo 1
    
    Chords:
    
    Am: x02210
    F: 133211
    C: x32010
    G: 320033
    
    INTRO
    
    Am F C G
    
    VERSE
    Am
    Again in the night we go into the world unknown, just let us go
    I know that I'm breathing slow, inhaling smoke, I just…
  • Standard Tuning
    
    The whole song played in the same way so i tabbed just part of the first verse and chorus :)
    
    [Chorus]
         Am                  F
    Cuz I don't wanna be like this,
               G
    I've been running these…
  • Intro Guitar 8sec. - 24sec.    2x
    e----------------------------------------------------------------------------|
    b----------------------------------------------------------------------------|
    g-----------5--5-5----10-10-10-----------------------------------------------|
    d-0--0-0----3--3-3----10-10-10-----------------------------------------------|
    a-0--0-0----3--3-3-----8--8--8-----------------------------------------------|
    d-0--0-0----3--3-3-----8--8--8-----------------------------------------------|
    
    
    
    (Verse…
  • Tuning : Drop D 
    
    
    Intro / Chorus 
    e|--------------|--------------|--------------|------------|
    B|--------------|--------------|--------------|------------|
    G|-7-----10--10-|-7-----10--10-|-7-----10--10-|-7----------|
    D|-7-----10--10-|-7-----10--10-|-7-----10--10-|-7--5--8--7-|
    A|-5-----8---8--|-5-----8---8--|-5-----8---8--|-5--5--8--7-|
    D|--------------|--------------|--------------|----5--8--7-|
    
    
    Verse…
  • Tuning: E Flat(Halfstep Down)
    
    e|--------------------------------------------------------------|
    h|--------------------------------------------------------------|
    G|--------------------------------------------------------------|
    D|---------------------9-8-7-0----------------------------------|
    A|---2----2--2---x4---------------------------------------------|
    E|---0----0--0--------------------------------------------------|…
  • Guitar 1 Rhythmic (C# G# C# F# A# D#)
    Guitar 2 Rhythmic (C# G# C# F# A# D#)
    Guitar 3 Lead     (C# G# C# F# A# D#)
    Guitar 4 Lead     (C# G# C# F# A# D#)
    
    NOTE: This was exported off of guitar pro.
    
    
    Guitar 1…
  • Tuning: Standart D (DGCFAd)
    
    INTRO:
    Rhythm & Lead Guitar:
    e|------------------------------------|
    B|------------------------------------|
    G|------------------------------------|
    D|------------------------------------|
    A|-----66666-----------66666---88866--|
    E|--888-----44466666888-----444-------|…
  • Intro (0:00 - 0:24)
    G|----------------|
    D|----------------|
    A|----------------|
    D|-5~--8~--1~--0~-| x4
    
    "Sick with myself.." (0:24 - 0:50)
    G|-----------------------------------------------------------------|
    D|-----------------------------------------------------------------|
    A|-----------------------------------------------------------------|
    D|-5-5-5-5-5-5-5-5-1-1-1-1-1-1-1-1-3-3-3-3-3-3-3-3-0-0-0-0-0-0-0-0-|
    
    -----------------------------------------------------------------|
    -----------------------------------------------------------------|
    -----------------------------------------------------------------|
    -5-5-5-5-5-5-5-5-8-8-8-8-8-8-8-8-1-1-1-1-1-1-1-1-0-0-0-0-0-0-0-0-|
    
    Chorus…
  • Tuning "Drop D"
    
    Intro
    e----------------------|
    b----------------------|
    g----------------------|
    d-99--99--99--99-------|
    a-99--99--99--99-------|
    D-99--99--99--99-------|
    
    
    "come on everybody throw your hands…
  • D tuned
    (figure out strum pattern)
    
    Intro
    E--------------------------------------------|
    B--------------------------------------------|
    G--------------------------------------------|
    D-5--5-5--5--5-5--5-5--5--5-5--5--5-5--7-7---|2x
    A-3--3-3--3--3-3--3-3--3--3-3--3--3-3--5-5---|
    D--------------------------------------------|
    PM…
  • Verse:
    
    e|-5-5-7-8-4-4-7-8-1-1-8-7-0-0-10-8------------------------------------------|
    B|---------------------------------------------------------------------------|
    G|---------------------------------------------------------------------------|
    D|---------------------------------------------------------------------------|
    A|---------------------------------------------------------------------------|
    E|---------------------------------------------------------------------------|
    
    Chorus:
    
    e|---------------------------------------------------------------------------|
    B|---------------------------------------------------------------------------|
    G|---------------------------------------------------------------------------|
    D|---------------------------------------------------------------------------|
    A|---------------------------------------------------------------------------|
    E|-5-5-7-8-4-4-7-8-1-1-8-7-0-0-10-8------------------------------------------|…
  • Drop D
    
    Intro 0:00 - 0:19 (repeated over and over)
    e-----------------------|
    b-----------------------|
    g-----------------------|
    d-33-56-----------------|  OR
    a-33-56-----------------|
    d-33-56-----------------|
    
    (repeated…
  • Fm               Gm
    Cause I don't wanna be like this
                     G          
    I've been running these streets
                 F
    for too long now
                   C                   
    I've got nothing that's true…
Наверх