Аккорды «Hoobastank»

Hoobastank
Hóobastank — американская рок-группа, образованная в 1994 году в Агура-Хиллз. Для раннего творчества коллектива было характерно фанк-рок звучание и использование саксофона. С 2000 года группа сосредоточилась на исполнении пост-гранжа. Помимо данного жанра, в музыке Hoobastank заметны элементы поп-рока и панк-рока. Группа стала популярна сразу после релиза дебютного альбома They Sure Don't Make Basketball Shorts Like They Used To, но мировое признание пришло к ним с выпуском сингла «The Reason»… Читать полностью... Hóobastank — американская рок-группа, образованная в 1994 году в Агура-Хиллз. Для раннего творчества коллектива было характерно фанк-рок звучание и использование саксофона. С 2000 года группа сосредоточилась на исполнении пост-гранжа. Помимо данного жанра, в музыке Hoobastank заметны элементы поп-рока и панк-рока. Группа стала популярна сразу после релиза дебютного альбома They Sure Don't Make Basketball Shorts Like They Used To, но мировое признание пришло к ним с выпуском сингла «The Reason» в начале 2004 года. Всего Hoobastank выпустили 5 студийных альбомов, последний из которых, For(n)ever, вышел в январе 2009 года. Ко времени его релиза коллектив имел 10 миллионов проданных копий своих альбомов по всему миру. После пика успеха благодаря выходу альбома The Reason в конце 2003 года, популярность Hoobastank достаточно снизилась. Несмотря на это студийные альбомы группы продолжают раскупаться солидными тиражами. На творчество Hoobastank своим тяжелым альтернативным звучанием оказали влияние группы Tool и Alice in Chains. Звучание группы часто сравнивают с Incubus и Lostprophets. Тексты песен чаще всего содержат размышления об чувствах, эмоциях и разочаровании. Происхождение Hoobastank относится к ранним 90-м, когда Доуг Робб и Дэн Эстрин нашли друг друга во время соревнования двух конкурирующих школьных групп. Каждый был впечатлен умениями своего конкурента. В итоге они покидают свои группы, чтобы объединить усилия и начали сотрудничество. С приходом Марку Лаппалайнена и Криса Хесе их творческая активность только усилилась. Эти годы они выступают по всей Калифорнии и Аризоне, играют в различных местах, даже в таких экзотических, как Дворец и Амфитеатр. В 1998 году Hoobastank своими усилиями выпускают свой первым альбом ''They Sure Don't Make Basketball Shorts Like They Used To''. В то время как диск продавался хорошо в местах выступлений и местных торговых точках, у группы стали появляться фаны и за пределами США - в Англии, Израиле, России и Бразилии. Парни продали все копии. ''Это неповторимое чувство, когда узнаешь, что наша музыка находит путь к слушателям во всем мире. Мы бы не поверили, пока не получили email от паренька из Бразилии, в котором он сообщил, что после прослушивания нашего альбома создал свой сайт, посвященный группе'', - говорит Эстрин. В 2001 году, после успешного дебюта, Hoobastank готовятся выполнить обещания своим слушателям. Теперь они будут наслаждаться мелодическим резонансом нового альбома, над которым работали Джим Вирт (Jim Wirt) и Джей Баумгарднер (Jay Baumgardner). Через стилистику жанра прямо на эмоциональное ядро, объединяя мелодичность и острый, резкий ритм электрогитар. Альбом ''Hoobastank'' выставляет на витрину таланты квартета и устанавливает их как группу с собственным звуком и видением. В итоге он стал платиновым, благодаря синглам: ''Crawling in the Dark'' и ''Running Away''. ''Я никогда не забуду, как мы загружали наше оборудование в звукозаписывающую студию в первый день'', - говорит Крис Хесе, - ''я не мог поверить, что это происходит. Тогда это было таким сильным чувством узнать, что наконец-то мы получили шанс сделать настоящую запись''. ''Это было коллективное чувство возбуждения и предвидения в первый день записи'', - добавляет Марку Лаппалайнен, - ''мы находились в студии шесть дней в неделю, десять часов в день в течение двух месяцев и это было замечательно. В конечном итоге, после прослушивания еще грубых и необработанных записей, мы все были такими счастливыми, что наконец-то закончили наш первый настоящий альбом. Мы ждали этого дня так долго''. К своему третьему альбому ребята подошли осмысленно. За работу взялся Говард Бенсон (Howard Benson) (P.O.D, Cold, Crystal Method). Он сосредоточился на лирике, мелодичности и песенной структуре, а не на индивидуальных элементах. Релиз ''The Reason'' состоялся 9 декабря 2003 года. Первый сингл ''Out of Control'' представляет более агрессивную сторону квартета. Она была последней записанной песней и касается общей темы альбома.. Влияние Наибольшее влияние на группу оказали такие команды, как Tool и Alice in Chains с их тяжелым альтернативным звучанием. Hoobastank смягчили самые мрачные элементы музыки такого рода пригородным калифорнийским грувом, сделав её доступной для более широкой аудитории. Помимо этого, участники признают влияние драм-н-бэйса на своё творчество. Группы, стилистика которых не похожа на Hoobastank, но тем не менее, оказавшие влияние на творчество коллектива: Faith No More, Mr. Bungle, Van Halen, Metallica, Guns N' Roses, Red Hot Chili Peppers, Slipknot, Meshuggah, Phish, Bjork, Pink Floyd и Led Zeppelin[38]. Музыкальный стиль Hoobastank — альт-рок группа, сочетающая некоторое подобие металлических рифов и эмоциональную лирику. До альбома Hoobastank группа исполняла песни преимущественно в стиле фанк-рок и ска-рок. Однако доминирование ска-музыки практически не прослеживалось, так как из инструментов данного стиля использовался лишь саксофон. С 2001 года звучание группы существенно преобразовалось из-за отказа от саксофона и сосредоточении на альтернативной музыке. С этого времени Hoobastank заправляют свои композиции пост-гранжем, смешанным с поп-роком и панк-роком. Список стилей, которые присутствовали в творчестве группы за всё время её существования: альтернативный рок, пост-гранж, акустический рок, альтернативный метал, фанк-рок, поп-рок, панк-рок, прогрессив рок, нью-метал, софт-рок, инди-рок. Hoobastank о своём творчестве Мы не делаем того, чего никто не делал до нас, что-то ультрасовременное; может это и не очень модно. Это просто рок с хорошей музыкой и лирикой. Лирикой, которая может пробудить у людей какие-то чувства. Каждый раз, когда мы выпускаем альбом, у меня появляется чувство, что мы должны что-то всем доказать. Ведь всем не угодишь, тот кто может сделать всех счастливыми, скорее всего делает что-то не так. Так что я очень горжусь каждой нашей последней записью. В нашей музыке больше позитива, чем страданий. К счастью, никого из нас родители не били, и жаловаться нам не на что, но нельзя сказать, что все наши песни — это только позитив. Мы довольно простая группа. Мы всего-навсего поем свои песни. На наших концертах вы не увидите светового шоу, взрывов или ещё что-нибудь в этом роде. — Дуг Робб Номинации и награды Во всех номинациях участвовали песня, видеоклип, либо альбом «The Reason». * 2004 — MTV Video Music Awards Лучший музыкальный видеоклип (номинация)[41] * 2004 — MTV Video Music Awards Лучший рок-клип (номинация)[42] * 2004 — The ARC Weekly Top 40 Поп-песня года (победа)[43] * 2005 — 47-я церемония «Грэмми» Лучший поп-вокал группы\дуэта (номинация)[44] * 2005 — 47-я церемония «Грэмми» Лучший рок-альбом (номинация)[45] * 2005 — 47-я церемония «Грэмми» Песня года (номинация)[46] * 2005 — MTV Asian Awards Лучший рок-коллектив (победа)[25] О названии По словам Робба, название группы не несёт в себе никакого смысла: «Вы хотите спросить меня, что означает название нашей группы? А ничего оно не означает. Просто звучит прикольно[47]». Однако, 16 декабря 2003 года, давая интервью радиостанции «Loveline», он утверждал, что Hoobastank — название бензоколонки в Германии, недалеко от которой живёт его подруга. Чуть позже, Крис Хесс говорил в одном из интервью: «Брат Дуга является вице-президентом „BMW Motorcycle“. Так вот, он живёт в Германии на улице „Hooba Street“. Мы долго выбирали название для группы, но ничего не приходило на ум, пока в один момент Дуг не предложил назваться Hoobastank[48]». Критика Hoobastank пользуются успехом у любителей альтернативной музыки, но ценители более тяжелой музыки отзываются о творчестве коллектива не слишком хорошо, объясняя это лёгкостью и несерьезностью как инструментальной составляющей, так и лирики группы. Начиная с 2001 года, после перехода Hoobastank на пост-гранж звучание, критики массово высказывали недовольство о творчестве Hoobastank, характеризуя его «плаксивым» и «шаблонным». Некоторые находили смешение «нью-метала, модерн рока, пост-гранжа, приправленного хип-хопом и барабанами» забавным и интересным, но однообразность звучания всё же присутствовала. Более поздние работы (Every Man for Himself, For(n)ever) вызывали у критиков более позитивные эмоции, одобрялись различные эксперименты со звучанием и серьёзный подход к написанию текстов. Сегодня перед нами совершенно другие Hoobastank по сравнению с той группой, к которой мы привыкли. Возможно, они просто стали взрослее. Индивидуальность и личностный выбор — вот основные темы альбома Every Man for Himself. На новой пластинке Hoobastank с оригинальным названием For(N)ever прежде всего выделяется звук — тот, с которым артисты пришли на большую сцену и добились своей популярности. Однако за этим звучанием кроется ещё и тот факт, что в музыке Hoobastank вновь появилась та неукротимая энергия, которая пошла на спад в их последних релизах Участники группы * Даг Робб (англ.) (англ. Doug Robb) — вокал, ритм-гитара * Дэн Эстрин (англ. Dan Estrin) — лид-гитара * Крис Хессе (англ. Chris Hesse) — ударные * Джесс Чарланд (англ. Jesse Charland) — бас-гитара Бывшие участники * Дерек Кван (англ. Derek Kwan) — саксофон (1997—1999) * Маркку Лаплайнен (фин. Markku Lappalainen) — бас-гитара (1994—2006) * Джереми Уоссер (англ. Jeremy Wasser) — саксофон (1995—2000) * Джош Морью (англ. Josh Moreau) — бас-гитара (2006—2008) * Давид Амезкуа (англ. David Amezcua) — бас-гитара (2008) Сессионные музыканты * Айан Откинс (англ. Ian Watkins) — бэк-вокал в песне «Out of Control»(2003) * Джеми Оливер (англ. Jamie Oliver) — бэк-вокал в песне «Out of Control» (2003) * Ванесса Амороси (англ. Vanessa Amorosi) — вокал в песне «The Letter» (2009) Скрыть...
Популярные аккорды Hoobastank:
алфавиту | просмотрам | случайно
  • E
    		   C#m
    I'm not a perfect person
    				E
    As many things I wish I didn't do
    		C#m
    But I continue learning
    				     A
    I never meant to do those things to you
    			       H
    And so I have to say before I go
    			  E
    That I just…
  • Tuning-D,A,D,G
    
    (Intro)
    G:-----------------------|
    D:-----------------------|  x3
    A:------------2-5-5-5-4--|
    D:2-4-4-2-4-4-----------2|
    
    G:-------------------------------|
    D:-------------------------------|
    A:----------------0-0-0-0--------|
    D:4-4-4-4-4-4-4-4---------2-2-2-2|
    
    (Verse)
    G:--------------------------|
    D:--------------------------|
    A:--------------------------|
    D:2-4-4-2-4--2--2-4-4-2-4--2|
    
    G:-------------------------------|
    D:-------------------------------|…
  • Chords
    Am (0,1,2,2,0,0)
    G  (1,0,0,0,2,3)
    F  (0,1,2,3,3,x)
    E  (0,0,1,2,2,0)
    C  (0,1,0,2,3,x)
    D  (2,3,2,0,0,x)
    
    Verse/Intro: Am, G, F
    
    Chorus : Am, E, C, D, F, C, G
    
    Interlude 1
    e|-------0-----------0-------|
    B|-----0---0-------0---0-----|
    G|---5-------5---5-------5---|
    D|-7-----------7-----------7-|
    A|---------------------------|
    D|---------------------------|X2
    
    Verse:…
  • Tuning- D,A,D,G
    
    (Intro)
    G:------------------|
    D:-----2-2----------|  x2
    A:4-4-------0-0--2-2|
    D:------------------|
    
    G:----------------------------------|
    D:---------2-2-2-2------------------|
    A:4-4-4-4-----------0-0-0-0--2-2-2-2|
    D:----------------------------------|
    
    G:--------------------------------4-|
    D:---------2-2-2-2--4-4-4-4--2-2----|
    A:4-4-4-4---------------------------|
    D:----------------------------------|
    
    G:------------------|
    D:-----2-2----------|…
  • Intro-
    G----------------------------------
    D----------------------------------
    A----------------------------------
    E--00--00--00--00--00--00--00--00--
    
    First Part:
    G--------------------------------------------------
    D--------------------------------------------------
    A--------------------------------------------------
    E--10h11h12-12-6-5-3-3-3h4h5--10h11h12-12-6-55-55--
    
    cont.
    G-------------------------------------------
    D-------------------------------------------
    A-------------------------------------------
    E--10h11h12-12-6-5-3-3-3h4h5-3-33-3-5-55-5--
    
    Second…
  • Drop D tuning
    
    Intro
    |-------2-------2----------------------
    |--------------------------3---------0-
    |-----4-------3----------2---------0---
    |---4-------4----------0---------0-----
    |-2-------2-------5/-------------------
    |--------------------5-------0-5-------
    
    Chorus…
  • Drop D Tuning.
    
    > = slide down
    
    
    Intro
    
    e|----------0--------0-------|---------0--------0-------|
    B|-------3--------3----------|------3--------3----------|
    G|-------------4--------4--4-|------------4-----------0-|
    D|-2-2-2---------------------|0-0-0----------------0----|
    A|---------------------------|--------------------------|
    D|---------------------------|--------------------------|
    
    
    e|----------0--------0-------|---------0--------------0-|
    B|-------3--------3----------|------3--------5--7-----0-|
    G|-------------4--------4--4-|------------------------0-|
    D|---------------------------|------------0-----------0-|
    A|-4-4-4---------------------|3-3-3---------------------|
    D|---------------------------|--------------------------|…
  • Intro / Verse (distorted)
    E|------------------------------------------------------------------------------------------
    B|------------------------------------------------------------------------------------------
    G|------------------------------------------------------------------------------------------
    D|-11-11-11---------10-10-10--11-11-11-------10-10--5-5-5----5-------------------------10--
    A|-----------7-7-7----------------------7-7-------------5--5------2--7/9—7----------3--8---
    E|------------------------------------------------------3-------0------------1-0-1---------
    
    Interlude
    E|-----------------------------------------------------------------------------
    B|-----------------------------------------------------------------------------
    G|-4/55--5/77--7/99--9/10-10---10/12-12---12/14-14---14/16-16---16/17-17---17--
    D|-x-xx--x-xx--x-xx--x-x--x----x--x--x-----x--x--x----x--x--x----x--x--x----x--
    A|-2/33--3/55--5/77--7/8--8----8-/10-10---10/12-12---12/14-14---14/15-15---15--
    E|-----------------------------------------------------------------------------
    
    Chorus…
  • Chords Used:
    Em7 022030
    G   320003
    D   000232
    A   002220
    E   022100  
    
    
    Em7                 G
    If I begged and if I cried
                            D
    Would it change the sky tonight
                          A
    Would…
  • Open E:
    E B E G# B E
    
    
    Intro:
    
    gtr. 1
    
    e-----------------------------------------------------------------
    b-----------------------------------------------------------------
    g---8-6---5-6-----------------------8-6---5-6---------------------
    e-------0-----0-4-5-0-5-7-0-3---3-0-----0-----0-4-5-0-5-7-0-4-5-7-
    b-----------------------------------------------------------------
    e-----------------------------------------------------------------
    
    gtr.…
  • Drop D:
    D A D G B E
    
    < > = harmonics
    
    Intro: 25 sec. then
    
    Verses: w/ flanger
    
    e---1-1-1-1-1-1-1---1-1-1-1-1-1-1---0-0-0-0-0-0-0---0-0-0-0-0-0-0-
    b---3-3-3-3-3-3-3---3-3-3-3-3-3-3---3-3-3-3-3-3-3---3-3-3-3-3-3-3-
    g---2-2-2-2-2-2-2---2-2-2-2-2-2-2---2-2-2-2-2-2-2---2-2-2-2-2-2-2-
    d---0-0-0-0-0-0-0---0-0-0-0-0-0-0---0-0-0-0-0-0-0---0-0-0-0-0-0-0-
    a-----------------------------------------------------------------
    d-----------------------------------------------------------------
    
    e---3-3-3-3-3-3-3---3-3-3-3-3-3-3---1-1-1-1-1-1-1---0-0-0-0-0-0-0-
    b---3-3-3-3-3-3-3---3-3-3-3-3-3-3---1-1-1-1-1-1-1---1-1-1-1-1-1-1-
    g---4-4-4-4-4-4-4---4-4-4-4-4-4-4---2-2-2-2-2-2-2---0-0-0-0-0-0-0-
    d---5-5-5-5-5-5-5---5-5-5-5-5-5-5---3-3-3-3-3-3-3---2-2-2-2-2-2-2-
    a---------------------------------------------------3-3-3-3-3-3-3-
    d-----------------------------------------------------------------
    
    e---1-1-1-1-1-1-1---1-1-1-1-1-1-1---0-0-0-0-0-0-0---0-0-0-0-0-0-0-
    b---3-3-3-3-3-3-3---3-3-3-3-3-3-3---3-3-3-3-3-3-3---3-3-3-3-3-3-3-
    g---2-2-2-2-2-2-2---2-2-2-2-2-2-2---2-2-2-2-2-2-2---2-2-2-2-2-2-2-
    d---0-0-0-0-0-0-0---0-0-0-0-0-0-0---0-0-0-0-0-0-0---0-0-0-0-0-0-0-
    a-----------------------------------------------------------------
    d-----------------------------------------------------------------
    
    e---3-3-3-3-3-3-3---3-3-3-3-3-3-3---1-1-1-1-1-1-1-----------------
    b---3-3-3-3-3-3-3---3-3-3-3-3-3-3---1-1-1-1-1-1-1-----------------
    g---4-4-4-4-4-4-4---4-4-4-4-4-4-4---2-2-2-2-2-2-2----5------------
    d---5-5-5-5-5-5-5---5-5-5-5-5-5-5---3-3-3-3-3-3-3---5-------------
    a--------------------------------------------------3--------------
    d-------------------------------------------------5---------------
    
    Pre…
  • Tuning: Drop D - D A D G B e
    
    Intro/Verse:
    e|-------------------------------------------|
    B|-------------------------------------------|
    G|--12-12-12-12-11-11-11-11-9-9-9-9----------|
    D|--12-12-12-12-11-11-11-11-9-9-9-9-7-7-777--|…
  • Tuning: Db Ab Db Gb Bb eb
    
    Intro/Verse
    eb|-------------------------------------------------|
    Bb|-------------------------------------------------|
    Gb|-------------------------------------------------|
    Db|-----5---5-7-----7---7-8-----8---8-7-----3---3-5-|
    Ab|-------------------------------------------------|
    Db|-5-5---5-----5-5---5-----8-8---8-----3-3---3-----|
    
    
    
    Pre-chorus:…
  • Open E:
    E B E G# B E
    
    Intro: (Bass arr. for gtr.)
    
    Fig. 1
    
    g-----------11---------9---------13----------
    d---11---11----11---11---11---11----11---11--
    a-9----9----------9---------9----------9-----  x2
    e--------------------------------------------
    
    g---------9-------9-------11--------
    d---9---9---9---9---9---9----9---9--
    a-7---7-------7-------7--------7----
    e-----------------------------------
    
    g--------------------------------------
    d---------7-----------------10---------
    a---7---7---7---7---10---10----10---7--
    e-5---5-------5---8----8----------8----
    
    Verse…
  • Open E:
    E B E G# B E
    
    
    Intro: w/ echo delay
    
    e---------0---------------0---------------0---------------0-------
    b-------2---2-----------2---2-----------2---2-----------2---2-----
    g-----3-------3-------3-------3-------3-------3-------3-------3---
    e---2-----------2---2-----------2---2-----------2---2-----------2-
    b-0---------------0---------------0---------------0---------------
    e-----------------------------------------------------------------
    
    Verses:…
  • Intro/part 1
    |------------|                   |--------------------------------------|
    |------------|                   |--------------------------------------|
    |------------|                   |--------------------------------------|
    |------4-6---|…
  • Drop D:
    D A D G B E
    
    Intro:
    
    Fig. 1
    
    e10--10-x-x10-----10-x-x-10-10-x-x10--10-x-x10-----10---x-10-10-x-x-
    b-------x-x----------x-x-------x-x-------x-x------------x-------x-x-
    g-9---9-x-x-9h11--11-x-x-11-11-x-x-9---9-x-x-9h11--11---x-11-11-x-x-
    d-0---0-x-x-0------0-x-x--0--0-x-x-0---0-x-x-0------0---x--0--0-x-x-
    a-------------------------------------------------------------------
    d-------------------------------------------------------------------
    
    e10--10----x10---10---x10---x10-10--10----x10101010----10-----------
    b-8---8----x-8----8---x-8---x-8-----------x---------------8b~~~~~~--
    g----------x----------x-----x---10--10----x-9-9-9-9-----9-----------
    d-0---0----x-0----0---x-0---x-0--0---0----x-0-0-0-0-----0-0---------
    a-------------------------------------------------------------------…
  • Tuning:drop d
     Intro:   guitar 1
    e|-----------------------------------------------------------------------|
    B|-----------------------------------------------------------------------|
    G|-----------------------------------------------------------------------|
    D|-----10------10-------10-----10--------10-----10-----10-----10---------|…
  • Tuning: Drop D (D,A,D,G,B,E)
    
    Intro/verse
    e---------------------------------------------------------------------------------
    b---------------------------------------------------------------------------------
    g---------------------------------------------------------------------------------
    d----------------------------------------------------0-----------0----------------
    a---9---9---9-----10---9---7---4---4--5--5--4-----0-----0-----0-------------------
    d-----0---0---0-0----0---0---0---0-------------5-----------3----------------------
    
    
    intro…
  • Tuning: Drop D - D A D G
    
    Intro:
    G|----------------------------------------------------------------------|
    D|----------------------------------------------------------------------|
    A|----------------------------------------------------------------------|
    D|--3--3--3~----3--2--0~----7-7-7-7-7-7-7-7-4-4-4-4-4-4-4-4-------------|
    
    G|----------------------------------------------------------------------|
    D|----------------------------------------------------------------------|
    A|----------------------------------3-3-3-3-3-3-3-3---------------------|
    D|--0-0-0-0-0-0-0-0-0-0-0-0-0-0-0-0-----------------5-5-5-5-5-5-5-5-0~--|
    
    Verse:
    G|----------------------------------------------------------------------|
    D|----------------------------------------------------------------------|
    A|----------------------------3--3--3-----------------------------------|
    D|--0--0--0------0--0--0-------------------5--5--5----------------------|
    
    Pre-Chorus:
    G|----------------------------------------------------------------------|
    D|----------------------------------------------------------------------|
    A|----------------------------------------------------------------------|
    D|--0-0-0-0-1-1-1-1-3-3-3-3-0-0-0-0-------------------------------------|
    
    Chorus:
    G|----------------------------------------------------------------------|
    D|----------------------------------------------------------------------|
    A|-----------11111111---------------------------------------------------|
    D|--00000000----------55555555-7777-8888--------------------------------|
    
    Bridge:
    G|----------------------------------------------------------------------|
    D|----------------------------------------------------------------------|
    A|----------------------------------------------------------------------|
    D|--111--111-11-33--111--111-11-33--0-0-0-0--0-0-0-0-111--111-11-33-----|…
  • Drop D tuning
    
    Intro:
    Distortion
    |--------------------|
    |--------------------|
    |--------------------|
    |--------------------|		Play it 3 times
    |----5-5----5-5---5--|
    |--6------6-----6----|
    
    4th time is weird 
    
    Then play the…
  • Drop D:
    D A D G B E
    
    
    Intro: 3/4 time w/ phase shifter
    
    gtr. 2
    
    e-------------------------------------------------
    b-------------------------------------------------
    g-9---9--9-9---9-9-9-9--9---9-9-9-9--9---9-9-9-9--
    d-9---9--9-9---9-9-9-9--9---9-9-9-9--9---9-9-9-9--
    a-7---7--7-7---7-7-7-7--7---7-7-7-7--7---7-7-7-7--
    d-7---7--7-7---7-7-7-7--6---6-6-6-6--6---6-6-6-6--
    
    e------------------------------------------------------
    b----------------------------7---7-7---7--7---7-7-7-7--
    g-7---7-7---7--7----7-7-7-7--x---x-x---x--x---x-x-x-x--
    d-7---7-7---7--7----7-7-7-7--4---4-4---4--4---4-4-4-4--
    a-5---5-5---5--5----5-5-5-5--0---0-0---0--0---0-0-0-0--
    d-5---5-5---5--5----5-5-5-5--0---0-0---0--0---0-0-0-0--
    
    gtr.…
  • Open C# Tuning (C# G# C# F G# C#)
    
    Intro
    C#[-0-0---0--0---0-0---0--0--]
    G#[-0-0---0--0---0-0---0--0--]
     F[-8-8--13-12---8-8--11-10--]
    C#[-7-7--12-12---7-7--10--9--]
    G#[-5-0--10--0---5-0---8--7--]
    C#[-5-0--10--0---5-0---8--7--]
    
    Verse1
    C#[-0-0---0--0---0-0---0--0--]
    G#[-0-0---0--0---0-0---0--0--]…
  • Tuning: Dropped D
    
    Intro/Verse: Palm mute notes on 6th string
    e|----------------------------------------|----------------------------------------|
    B|----------------------------------------|----------------------------------------|
    G|----------------------------------------|----------------------------------------|
    D|------12------10------------------------|------12------10------------------------|
    A|----------------------12------10------9-|----------------------12------10------9-|
    D|-0-12----0-10----0-10----0-10----0-12---|-0-12----0-10----0-10----0-10----0-12---|
    
    e|-----------------------------------|-----------------------------------------|
    B|-----------------------------------|-----------------------------------------|
    G|-----------------------------------|-----------------------------------------|
    D|-----------------------------------|------12------10------13------12------10-|
    A|-----10-----10-----9-----9------12-|-----------------------------------------|
    D|-0-8----0-8----0-7---0-7---0-10----|-0-12----0-10----0-13----0-12----0-10----|
    
    
    
    Intro/Chorus…
  • Open E:
    E B E G# B E
    
    
    Intro: x2
    
    e-------------------------------------------
    b-------------------------------------------
    g-------------------------------------------
    e-11---11-11-11---11-12---12-12-12-12-12-12-
    b--0----0--0--0----0--0----0--0--0--0--0--0-
    e-------------------------------------------
    
    e-------------------------------------------
    b-------------------------------------------
    g-------------------------------------------
    e---14-14-14-14-14-14-12------12--12-12-12--
    b-0--0--0--0--0--0--0--0----0--0---0--0--0--
    e-------------------------------------------
    
    Verses:
    
    pm
    e-----------------------------------------------------------------
    b-----------------------------------------------------------------
    g---------------------------------------------5-----5-----5---5---
    e-6-----------6-----6-----6-6-6-6-5-----------5-----5-----5---5---
    b-0---0-0-0-0-0-0-0-0-0-0-0-0-0-0-0---0-0-0-0-0-0-0-0-0-0-0-0-0-0-
    e-----------------------------------------------------------------
    
    e-----------------------------------------------------------------
    b-----------------------------------------------------------------
    g-------------6-----6-----6-6-6-6-------------3----121212121212---
    e-3-----------3-----3-----3-3-3-3-0-----------0-----x-x-x-x-x-x---
    b-3-----------3-----3-----3-3-3-3-0-----------0-----9-9-9-9-9-9---
    e-3---3-3-3-3---3-3---3-3-3-3-3-3-0---0-0-0-0---0-0---------------
    
    e-----------------------------------------------------------------
    b-----------------------------------------------------------------
    g---------------------------------------------5-----5-----5---5---
    e-6-----------6-----6-----6-6-6-6-5-----------5-----5-----5---5---
    b-0---0-0-0-0-0-0-0-0-0-0-0-0-0-0-0---0-0-0-0-0-0-0---0-0-0-0-0-0-
    e-----------------------------------------------------------------
    
    e-----------------------------------------------------------------
    b-5-----------5-----5-----5---------------------------------------
    g-3-----------3-----3-----3---------------------------------------
    e-0-----------0-----0-----0---------------------------------------
    b-0-----------0-----0-----0---0---0-------------------------------
    e-0---0-0-0-0---0-0---0-0---0-0-2-3~~~~~~~~~~~~~~~~~~~~~~~-/12---
    
    Chorus:
    
    gtr.…
  • INTRO 1 - REPEAT FEW TIMES
    e|--------------------------|
    B|--------------------------|
    G|-12-12-12-12--11-11-11-11-|
    D|-12-12-12-12--11-11-11-11-|
    A|-10-10-10-10---9--9--9--9-|
    D|--------------------------|
    
    e|-----------------|
    B|-----------------|
    G|-14-14-14-14--13-|
    D|-14-14-14-14--13-|
    A|-12-12-12-12--11-|
    D|-----------------|
    
    INTRO…
  • Tuning:Db Ab Db Gb Bb eb
    
    Intro
    eb|-------------------------------------|
    Bb|-------------------------------------|
    Gb|---------7-----------7-----------7---|
    Db|-------5-----------5-----------5---5-| x3
    Ab|---3/5---------3/5---------3/5-----3-|
    Db|-0-----------0-----------0-----------|
    
    
    eb|-------------------------------------|
    Bb|-------------------------------------|
    Gb|---------7-----------7---------------|
    Db|-------5-----------5-----------5-5-5-|
    Ab|---3/5---------3/5---------3/5---3-3-|
    Db|-0-----------0-----------0-----------|
    
    
    eb|-------------------------------|
    Bb|-------------------------------|
    Gb|-------------------------------|
    Db|---7-------7-------7---------5-|…
  • Drop D:
    D A D G B E
    
    < > = artificial harmonics
    
    Intro:
    
    x2
    e------------------------------------------------
    b------------------------------------------------
    g------------------------------------------------
    d-0---2----4----10---10---0---2----4----10---10--
    a-0---2----4----10---10---0---2----4----10---10--
    d-0---2----4----10---10---0---2----4----10---10--
    
    Verses:…
Наверх