Аккорды «Hot Action Cop»

Hot Action Cop
Hot Action Cop - американская альтернативная рок-группа. Группа выпустила свой одноименный дебютный альбом на "Lava/Atlantic Records" в марте 2003. Роб Вертнер (Rob Werthner) (гитарист/поэт - песенник/солист) сформировал первоначальный состав в 1990-ых с басистом Луисом Эспаильятом (Luis Espaillat), барабанщиком Корай Ниппом (Kory Knipp) и Нашвильским гитаристом Тимом Флаэртай (Tim Flaherty). Позже перед туром в 2003, добавил Нашвильского музыканта, играющего на клавишных Дэниела Физ (Daniel Feese).… Читать полностью... Hot Action Cop - американская альтернативная рок-группа. Группа выпустила свой одноименный дебютный альбом на "Lava/Atlantic Records" в марте 2003. Роб Вертнер (Rob Werthner) (гитарист/поэт - песенник/солист) сформировал первоначальный состав в 1990-ых с басистом Луисом Эспаильятом (Luis Espaillat), барабанщиком Корай Ниппом (Kory Knipp) и Нашвильским гитаристом Тимом Флаэртай (Tim Flaherty). Позже перед туром в 2003, добавил Нашвильского музыканта, играющего на клавишных Дэниела Физ (Daniel Feese). Так же как и многие известные группы (как Bloodhound Gang, Eminem, Red Hot Chili Peppers и Limp Bizkit), он исполнял песни с тескстами о сексе. Название группа получила от язвительного прозвища, которое Вертнер дал другу своей эксподруги после того, как она и Вертнер разошлись в начале 90-ых. Он был офицером NYPD с перистой устарелой стрижкой. Их песня "Fever for the Flava" была использована в музыкальном сопровождении к нескольким фильмам, наиболее известны "American Wedding" и "Grind" (так же появляется в эпизодах "King of the Hill", "Malcolm in the Middle", "Smallville" и "The Man Show"), и альтернативная песня (рассказывающая об автомобилях вместо секса) также появилась в одной из частей известной видеоигры - гоночной серии Need for Speed (Need for Speed: Hot Pursuit 2; PC, PS2, Xbox, GameCube; EA Black Box). Это было также отмечено *49 местом в списке "MuchMusic's list of the 50 Most Controversial Videos". Состав группы: * Роб Вертнер (Rob Werthner) - вокалы и гитара * Тим Флаэртай (Tim Flaherty) - гитара * Хуан Чаволья (Juan Chavolla) - бас * Джохэйннс Грир (Johannes Greer) - барабаны Дискография: * Nutbag EP (2002) * Hot Action Cop (2003) * 2009 EP (2009) Синглы: * "Fever for the Flava" Треки использованные в фильмах и др.: # Grind (Трек "Goin' Down On It", "Fever For The Flava") # S.W.A.T. (Трек "Samuel L. Jackson") # American Wedding (Трек "Fever For The Flava") # Need for Speed: Hot Pursuit 2 (Трек "Goin' Down On It", "Fever For The Flava")* # The Real Cancun (Трек "Fever For The Flava") Скрыть...
Популярные аккорды Hot Action Cop:
алфавиту | просмотрам | случайно
  • Standard Tuning
    
    Intro - palm mute
    |------------------------------------
    |------------------------------------
    |------------------------------------
    |------7-6---6-9-9------7-6---6-4-4-- 
    |--7-7-----7--------7-7-----7--------
    |------------------------------------
    
    Verse
    |-------------------------------------
    |---------------------x-x-x-x-x-x-x-x-
    |-9-9--8--------------x-x-x-x-x-x-x-x-
    |-9-9--8--6--6--4-4---x-x-x-x-x-x-x-x-
    |-7-7--6--6--6--4-4---x-x-x-x-x-x-x-x-
    |---------4--4--2-2-------------------
    
    Chorus
    |-------------------------------------------------------
    |-------------------------------------------------------
    |---9---8-----------------------------------------------
    |---9---8------------------7----------------9-----------
    |---7---6------------------7----------------9-----------
    |--------------------------5----------------7-----------…
  • Intro 
    E|-------------------------------------------------------------------||
    B|------12-----------------------------------------------------------||
    G|------12-----------------------------------------------------------||
    D|-------------------------------------------------------------------||
    A|-------------------------------------------------------------------||
    E|-------------------------------------------------------------------||…
  • anyway, standard tuning, and distortion.
    
    Intro
    |-------------------------------
    |-------------------------------
    |-----------------------7-8-7-5-
    |-7--7-7-10-10-7--7-7-7-7-8-7-5-
    |-7--7-7-10-10-7--7-7-7-5-6-5-3-
    |-5--5-5-8--8--5--5-5-5---------
    
    Verse
    |-----------------------------------
    |-----------------------------------
    |---------------------------7-8-7-5-
    |-7-7-7-7-10-10-10-7--7-7-7-7-8-7-5-
    |-7-7-7-7-10-10-10-7--7-7-7-5-6-5-3-
    |-5-5-5-5-8--8--8--5--5-5-5---------
    PM.......…
  • E-------------------------------------------|
    B--7-7-----10----3-3----------------------|
    G---0--------0----0-------------------------|
    D-------------------------------------------|
    A--5-5--------0--2-2------------------------|
    E-------7--9--------------------------------|
    
    E-------------------------------------------|
    B-------------------------------------------|
    G----0------4-----6-------------------------|
    D-----2----0-----0--------------------------|
    A-------------------------------------------|
    E--2-0-0/3----3/5---------------------------|
    
    E-------------------------------------------|
    B-------------0-----------------------------|
    G----------2--------------------------------|
    D--------------------0----------------------|
    A--------0--0---0/2-------------------------|
    E---5-------------------------------------|…
Наверх