Аккорды «Hot Water Music»

Hot Water Music
Hot Water Music - это панк рок/пост-хардкор группа из Гэйнсвилля, Флорида. Участниками группы являются Чак Рэгэн (Chuck Ragan), Крис Уоллард (Chris Wollard), Джейсон Блэк (Jason Black), и Джордж Ребело (George Rebelo). HWM образовались в 1993 г.. В 1996 г., после выхода двух EP и альбома, группа ненадолго распалась, но вскоре воссоединилась в 1997 г., объявив об этом на записи концерта ‘Live at the Hardback’. Позже в 2006 г., Hot Water Music объявили о том, что настала пауза в деятельности группы.… Читать полностью... Hot Water Music - это панк рок/пост-хардкор группа из Гэйнсвилля, Флорида. Участниками группы являются Чак Рэгэн (Chuck Ragan), Крис Уоллард (Chris Wollard), Джейсон Блэк (Jason Black), и Джордж Ребело (George Rebelo). HWM образовались в 1993 г.. В 1996 г., после выхода двух EP и альбома, группа ненадолго распалась, но вскоре воссоединилась в 1997 г., объявив об этом на записи концерта ‘Live at the Hardback’. Позже в 2006 г., Hot Water Music объявили о том, что настала пауза в деятельности группы. Чак Рэгэн (Chuck Ragan) уехал домой чтобы заботиться о своей семье. Однако 13 Мая 2006 г. Hot Water Music объявили о том, что группа официально расформирована. Три участника группы собрали свой проект, The Draft. Их первый альбом, In a Million Pieces, вышел 12 сентября 2006 г. Так же Чак Рэгэн (Chuck Ragan) продолжает музыкальную карьеру, выпуская материал на No Idea Records. Группа воссоединилась в 2007 г., дала несколько концертов. Коллекция записей Hot Water Music на CD и виниле была издана лейблом No Idea Records под названием Till the Wheels Fall Off. Участники группы также приняли участие во многих сайд-проектах, например, The Blacktop Cadence, Cro(w)s, Unitas и Rumbleseat, а также сотрудничали со многим группами, например, Alkaline Trio, The Bouncing Souls и Against Me!. Имя группы было взято по названию книги Чарльза Буковски (Charles Bukowski). Дискография: Студийные альбомы: * Finding The Rhythms (1996) * Fuel For The Hate Game (1997) * Forever And Counting (2008) * No Division (2007) * A Flight And A Crash (2001) * Caution (2002) * The New What Next (2004) * Exister (2012) Компиляции: * Never Ender (2001) * Till the Wheels Fall Off (2008) Live-альбомы: * Live at the Hardback (1999) * Live in Chicago (2012) Скрыть...
Популярные аккорды Hot Water Music:
алфавиту | просмотрам | случайно
  • Tuning: E A D G B e
    
    
    Intro/Verse
    e|-------------------------|
    B|-------------------------|
    G|--666--------------------|
    D|--666-2-444-2-444-6-222--|
    A|--444-2-444-2-444-6-222--|
    E|------0-222-0-222-4-000--|
    
    
    Awesome Intro…
  • Standard Tuning E A D G
    
    
    INTRO
    
    A 7--5-----3--2-----7--5--3  PLAY 2X
    E ------3--------3---------
    
    then play several times:
    
    A 5-5----7-7----2-2----3-3-3-2
    
    
    VERSE
    
    A 7-7-7-7-5-5-5-5------------------3-3-3-2-2-2   
    E ----------------3-3-3-3-3-3-3-3-------------
    						
    A…
  • part-a
    |-----------------------|
    |-----------------------|
    |--9---9---6/6--7-------|
    |--7---9---4/6--7-------|
    |-----------------------|
    |-----------------------|
    
    
    part-b
    |-----------------------------------------|
    |--2--------------------------------------|
    |--2----1----------7--6—7--6--7-----------|
    |--2----2----4-----7--6—7--6--7-----------|
    |-------2----4-----5--4—5--4--5-----------|
    |------------2----------------------------|
    
    
    part-c
    |-------------------------------|
    |--------2----------------------|
    |--------2----2----4--6--7------|
    |--4-----2----2----4--6--7------|
    |--4----------1----2--4--5------|
    |--2----------------------------|
    
    
    part-d
    |-------------------|
    |-------------------|
    |---------4-2-2-----|
    |--4-4-4------------|
    |-------------------|
    |-------------------|
    
    
    part-e
    |-------------------------------|
    |--5-5-------X6-----------------|
    |-------4-2------7-7--6---------|
    |----------------7-7--6—X3------|
    |----------------5-5--4---------|
    |-------------------------------|
    
    
    part-f
    |--------------------------------------------------------------------------|
    |--------------------------------------------------------------------------|
    |---------4--2--2--------4--2-2----2----4--2-2-----2----4--2--2------------|
    |--4-4-4----------4-4-4---------4----4-----------4----4--------------------|
    |--------------------------------------------------------------------------|
    |--------------------------------------------------------------------------|
    
    
    Order:
    Part-a…
  • Intro and Verse 1
    
    Guitar:
    |----------------------------------------------------------|
    |--------time and keeping with drumd is easy here----------|
    |----------------------------------------------------------|
    |--5-7--5-7--5-7--5-7--5-7--5-7--5-7--5-7--5-7--5-7--5-7---|
    |----------------------------------------------------------|
    |----------------------------------------------------------|
    
    
    Bass:…
  • Tuning: standard
    
    
    Intro
    played twice, but the first time it ends where i put a N.
    e|---------------------------------------------------------------------------|
    B|---------------------------------------------------------------------------|
    G|9/12---11--11-9--9----9-9-9-9-8-8-9-9-9-6-6-9-9-9-9-8-8-9N9-9-6-6----------|
    D|-------x---x--x--x----x-x-x-x-x-x-x-x-x-x-x-x-x-x-x-x-x-xNx-x-x-x----------|
    A|-------9---9--7--7----7-7-7-7-6-6-7-7-7-4-4-7-7-7-7-6-6-7N7-7-4-4----------|
    E|---------------------------------------------------------------------------|
    okay…
  • Intro
    e|------------------------------------------------------------------| 
    B|5-5-5/7-7-7-7/3-3-3-3-3-5-3-5-[x3]/5-5-5/7-7-7-7/8-8-8-8/10-10-10-| 
    G|------------------------------------------------------------------| 
    D|------------------------------------------------------------------|…
  • Standard tuning E A D G
    
    
    INTRO + VERSE
    
    G ---------------------------------------------------------------------	     
    D -----------2-----------------2---------------------------------------
    A 4 4 4 2 4-----4 2--4 4 4 2…
Наверх