Аккорды «Hundred Reasons»

Hundred Reasons
Hundred Reasons - английская альтернативная рок-группа из Олдершот, Хэмпшир, образованная в 1999 г. Группа состоит из Колина Дорана (вокал), Ларри Хиббитта (гитара, вокал), Энди Гилмора (бас) и Энди Бьюса (ударные). Hundred Reasons - английская альтернативная рок-группа из Олдершот, Хэмпшир, образованная в 1999 г. Группа состоит из Колина Дорана (вокал), Ларри Хиббитта (гитара, вокал), Энди Гилмора (бас) и Энди Бьюса (ударные). Скрыть...
Популярные аккорды Hundred Reasons:
алфавиту | просмотрам | случайно
  • INTRO 
    e|---------------------------------------------------------|
    B|---1---1p0---1---1p0---1---1p0---1---1p0-----------------|
    G|-0---0-----0---0-----0---0-----0---0---------------------|
    D|---------------------------------------------------------|
    A|---------------------------------------------------------|
    E|---------------------------------------------------------|
    
    
    MAIN…
  • Tuning D, G, D, G, B, e (thickest 2 strings dropped a step)
    
    |----------------------------------------------------------------------------
    |---------------2-3----------------2-3----------------2-3----------------2-3-
    |-------------2------------------2--------0---------2--------0---------2-----
    |-----0-h2-h4------------0-h2-h4------------0-h2-h4------------0-h2-h4-------
    |---2------------------2----------------0------------------0-----------------
    |-0------------------0-------------------------------------------------------
    
    |----------------------------------------------------------0-
    |----------------------------------------------------------3-
    |----------------------------------------------------------2-
    |-5-5-5--4-4-4-4-4---5-5-5--4-4-4-4-4---5-5-5--4-4-4-4-4---0-
    |-7-7-7--7-7-7-7-7---5-5-5--5-5-5-5-5---4-4-4--4-4-4-4-4-----
    |------------------------------------------------------------
    
    |----------------------------------------
    |----10----10----10----10----12-10----10-
    |-11----11----11----11----11-------11----
    |----------------------------------------
    |----------------------------------------
    |----------------------------------------
    
    
    Lyrics:
    
    In…
  • Tuning: 1 Step Down (D G C F A D)
    
    
    Intro
    Gtr 1 clean
    D|----------------------------------------------||
    A|----------------------------------------------||
    F|--14--14---14--14-------14--14---14--14-------||
    C|---x---x----x---x---14---x---x----x---x--14---||
    G|--12--12---12--12----x--12--12---12--12---x---||
    D|--------------------12-------------------12---||
    
    
    Gtr…
  • Intro: Dm Em F# G x 2
    
    
    Dm
    what could've happened to take what's become of it
    G
    choices that he had made moulds to most of it
    Dm
    but to hide in the shade will keep the weather out
    G
    and to crawl into the hole that…
  • Tuning: EADGBE
    
    
    Intro
    
    E|-----------------------------------|
    B|-----------------------------------|
    G|---------5---------5-----------5-5-|
    D|-5-3-2-5-5-3-2-5-5-3-2-5-5-3-2-5---|
    A|---------3---------3-----------3---|
    E|-----------------------------------|
    
    
    Verse…
  • |-----------------------------
    |-------------2p0-----2p0-----
    |-----2-----2-----2p0-----0h2-
    |---0-------------------------
    |-0-----2-2-------------------
    |-----------------------------
    
    
    |-------------------------
    |-------------------------
    |-------------------------
    |-9-9-9-7-7-7-5-5-5-7-7-7-
    |-9-9-9-7-7-7-5-5-5-7-7-7-
    |-7-7-7-5-5-5-3-3-3-5-5-5-
    
    
    |-----------------------------
    |-------------2p0-----2p0-----
    |-----2-----2-----2p0-----0h2-
    |---0-------------------------
    |-0-----2-2-------------------
    |-----------------------------
    
    
    |----------------------------------------------------
    |-3-3-3-3-3-3--3-3-3-3-3-3--5-5-5-5-5-5--5-5-5-5-5-5-
    |-2-2-2-2-2-2--2-2-2-2-2-2--4-4-4-4-4-4--4-4-4-4-4-4-
    |-0-0-0-0-0-0--0-0-0-0-0-0--3-3-3-3-3-3--3-3-3-3-3-3-
    |----------------------------------------------------
    |----------------------------------------------------
    
    
    |---------------------------------
    |-----5-------5-------5-------5---
    |---4---4---4---4---4---4---4---4-
    |-2-------2-------0-------0-------
    |---------------------------------
    |---------------------------------
    
    
    |-----------------------------------
    |-----5-------5-------5-------5/75-
    |---4---4---4---4---4---4---2-------
    |-2-------2-------0-------0---------
    |-----------------------------------
    |-----------------------------------
    
    
    |-------------------------
    |-------------------------
    |-9-9-9-9-9-9-9-9-5-5-5-5-5-5-5-5-2-2-2-2-2-2-2-2-------
    |-9-9-9-9-9-9-9-9-5-5-5-5-5-5-5-5-2-2-2-2-2-2-2-2-5-5-5-5-5-5-5-5-
    |-7-7-7-7-7-7-7-7-3-3-3-3-3-3-3-3-0-0-0-0-0-0-0-0-5-5-5-5-5-5-5-5-
    |-------------------------------------------------3-3-3-3-3-3-3-3-…
  • intro:
                                                              main bit of intro
    e|------------------------|-----7---7---7---7---7---7---7---7---7--7--7--7--7--7--7--7----|
    b|---10-10-10-10-10-10-10-|-----10--10--10--10--10--10--10--10--8--8--8--8--8--8--8--8----|
    g|------------------------|-----7---7---7---7---7---7---7---7---7--7--7--7--7--7--7--7----|
    d|------------------------|---------------------------------------------------------------|…
  • intro:
    
    eb|---------------------------------------------------------------------|
    bb|---------------------------------------------------------------------|
    gb|--8-8--8--8----8----8--8--8--8---------------------------------------|
    db|--8-8--8--8----8----8--8--8--8---------------------------------------|x2
    ab|--6h7--6--6---6h7--6--6--6h7-----------------------------------------|
    eb|---------------------------------------------------------------------|
    
    
    verse…
  • Tuning: Drop D
    
    
    Intro and Chorus
    e|--------------------------------------------------------------------------|
    B|----0-------0-------0-------0-------0-------0-----------------------------|
    G|----6-------6-------6-------6-------6-------6-6--6---6---6---6-6----------|
    D|----------------------------------------------7--7-7-7-7-7-7-7-7-(x2)-----|
    A|0-0---0-0-0---0-0-0---0-0-0---0-0-0---0-0-0------8-8-8-8-8-8-8-8----------|
    D|--------------------------------------------------------------------------|
    
    e|--------------------------------------------------------------------------|
    B|--------------------------------------------------------------------------|
    G|-2-2---------2-2-2-2---------2-2------------------------------------------|
    D|-2-2-3-3-2-2-2-2-2-2-3-3-2-2-0-0-(x4)-------------------------------------|
    A|-0-0-3-3-2-2-0-0-0-0-3-3-2-2-0-0------------------------------------------|
    D|-----1-1-0-0---------1-1-0-0----------------------------------------------|…
  • Drop D tuning: DADGBe
    
    
    |-------------------|
    |-------------------|
    |------------12-12--|
    |----------x--------|
    |-10-10-10----------|
    |-------------------|x2
    
    |-------------------|
    |-------------------|
    |-----------10-10---|
    |--------x----------|
    |-8-8-8-------------|
    |-------------------|x2
    
    
    X4
    
    
    Then....
    Play…
  • TUNING: ONE WHOLE STEP DOWN
    
    
    Main riff:
    e|----------------------------------
    b|----------------------------------
    g|-------7---9---7------------------    REPEAT 4 TIMES
    d|-0-0-0---0---0---0-0-0---0-7------
    a|-----------------------0----------
    E|----------------------------------
    
    
    Then:
    e|----------------------------------
    b|----------------------------------
    g|-------11---9---11----------------
    d|-0-0-0----0---0----0-0-0---0-7----
    a|-------------------------0--------
    E|----------------------------------…
Наверх