Аккорды «Hunters & Collectors»

Hunters & Collectors
Hunters & Collectors — австралийская рок-группа, образованная в Мельбурне в 1981 году вокалистом, гитаристом и автором Марком Сеймуром (англ. Mark Seymour) и исполнявшая смесь паб-рока, арт-фанка и краутрока. Само свое название Hunters & Collectors заимствовали у одноименной песни Can (из альбома Landed 1975 года). Два первых альбома группы записал продюсер Конни Планк. В первом составе с Сеймуром также играли Джон Арчер (англ. John Archer, бас-гитара), Дуг Фальконер (англ. Doug Falconer, ударные),… Читать полностью... Hunters & Collectors — австралийская рок-группа, образованная в Мельбурне в 1981 году вокалистом, гитаристом и автором Марком Сеймуром (англ. Mark Seymour) и исполнявшая смесь паб-рока, арт-фанка и краутрока. Само свое название Hunters & Collectors заимствовали у одноименной песни Can (из альбома Landed 1975 года). Два первых альбома группы записал продюсер Конни Планк. В первом составе с Сеймуром также играли Джон Арчер (англ. John Archer, бас-гитара), Дуг Фальконер (англ. Doug Falconer, ударные), Джек Ховард (англ. Jack Howard, клавишные и духовые), Джереми Смит (англ. Jeremy Smith, валторна, гитара и клавишные), Майкл Уотерс (англ. Michael Waters, тромбон, клавишные). В 1988 году к Hunters & Collectors присоединился гитарист Барри Палмер (англ. Barry Palmer), остававшийся постоянным участником группы вплоть до её распада в 1998 году. В австралийский Top 10 входили альбомы Hunters & Collectors Human Frailty (1986), Ghost Nation (1989), Cut (1992) и Demon Flower (1994), а также синглы: «Throw Your Arms Around Me», «Talking to a Stranger», «Holy Grail», «True Tears of Joy» and «Say Goodbye». H&C, кроме того, зарекомендовали себя одной из лучших концертных групп страны. В мае 2001 года APRA (Australasian Performing Right Association) составила список 30 лучших австралийских песен всех времен, включив туда «Throw Your Arms Around Me» (песню, исполнявшуюся, в частности, Crowded House и Pearl Jam). 14 июля 2005 года Hunters & Collectors были введены в Зал славы Австралийской звукозаписывающей ассоциации (ARIA). Скрыть...
Популярные аккорды Hunters & Collectors:
алфавиту | просмотрам | случайно
  • Intro/Verse riff
    This riff is the main riff through the whole song.
    
    e|--------------------------|
    B|--------------------------|
    G|--9-------x--9-------x----|
    D|--9--9:---x--9--7:---x----|
    A|--7--9:---x--7—-7:---x----|
    E|-----7:---x-----5:---x----|
    
    e|-------------------------|
    B|-------------------------|
    G|-9-----------------------|
    D|-9--9----------7---------|
    A|-7--9------7/9---9-7-----|
    E|----7--5/7---------------|
    
    
    Chorus
    
    	E	D	B
    e|------------------------------|
    B|--9:---7:---4--4--x-4-x-4--4--|
    G|--9:---7:---4--4--x-4-x-4--4--|
    D|--9:---7:---4--4--x-4-x-4--4--|
    A|--7:---5:---2--2--x-2-x-2--2--|
    E|------------------------------|
    
    
    Outro
    
    	D
    e|-------------------|
    B|--7--7-7--7-7--7---|
    G|--7--7-7--7-7--7---|
    D|--7--7-7--7-7--7---|
    A|--5--5-5--5-5--5---|
    E|-------------------|
    
    
    Lyrics:
    
    If…
  • INTRO (trumpet, with some sort of filter, transcribed for guitar)
    
    e|-------------------------------------------|
    B|-9-9-9--9-9-7-7-7-7-5-5--5-5--5-5-5--5-5---|
    G|-------------------------------------------|
    D|-------------------------------------------|
    A|-------------------------------------------|
    E|-------------------------------------------|
    
    
    MAIN…
  • The chords you use are:
    
        E              A           C#m           B            D
    E: |-----|      |-----|      |--4--|      |--2--|      |--2--|
    B: |-----|      |--2--|      |--5--|      |--4--|      |--3--|
    G: |--1--|…
  • Intro
        H H H H H H H 
    e--------5-5-5-5-5-5-5--------------
    B--------5-5-5-5-5-5-5--------------
    G--------5-5-5-5-5-5-5-5-5-5--5-5-5-	
    D--------5-5-5-5-5-5-5-5-5-5--5-5-5-   x2
    A--------5-5-5-5-5-5-5-5-5-5--5-5-5-
    E--------5-5-5-5-5-5-5--------------
    
    e|--5--5-5-5--5-5------5--5-5-5--5-5--------------|
    B|--6--6-6-6--6-6------5--5-5-5--5-5--------------|
    G|--7--7-7-7--7-7------5--5-5-5--5-5--------------|
    D|--7--7-7-7--7-7------7--7-7-7--7-7--------------|…
  • Verse
    When the singing starts, the guitar comes in with the verse riff.
    Listen to the song for how to strum it.
    
    	Em			C
    e|---0--0---0-0---0--0:--|
    B|---0--0---0-0---1--1:--|
    G|---0--0---0-0---0--0:--|
    D|---2--2---2-2---2--2:--|
    A|---2--2---2-2---3--3:--|
    E|-0-0--0---0-0----------|
    
    This…
Наверх