Аккорды «I Mother Earth»

I Mother Earth
Группа I Mother Earth была основана двумя братьями Ягори (гитара) и Кристианом Танна (барабаны) из Петерборо в 1990 г., впоследствии переехавшими в Торонто, чтобы целиком посвятить себя музыке. После того как в студии братья познакомились с вокалистом по имени Эдвином и басистом Францем Массини они записали своё первое демо. После приблизительно дюжины прослушиваний дебютной демки на различных лейблах ребятам позвонил представитель Capitol records, с которыми довольно быстро был заключен контракт.… Читать полностью... Группа I Mother Earth была основана двумя братьями Ягори (гитара) и Кристианом Танна (барабаны) из Петерборо в 1990 г., впоследствии переехавшими в Торонто, чтобы целиком посвятить себя музыке. После того как в студии братья познакомились с вокалистом по имени Эдвином и басистом Францем Массини они записали своё первое демо. После приблизительно дюжины прослушиваний дебютной демки на различных лейблах ребятам позвонил представитель Capitol records, с которыми довольно быстро был заключен контракт. Затем группа отправилась в Лос-Анджелес для записи дебютного альбома с продюссером Майком Клинком (Guns & Roses). Франц Массиниi был заменен на другого басиста по имени Брюс Гордон, который репетировал в том же здании что и I.M.E. с его предыдущей группой Rocktopus. Уже перед тем как они выпустили свой дебютный альбом, «Dig», летом 1993, I Mother Earth успели исколесить всю Канаду и Соединенные Штаты, взрывая публику и завоёвывая массу положительных отзывов своими мегадрайвовыми живыми перфомансами. Летом IME уехали в Европу для участия в целой круговерти фестивалей в таких странах как Дания, Швеция, Англия, Германия, Голландия, Бельгия, Франция и Италия. Вернувшись домой осенью, музыканты продолжили своё напряжённое турне которое продолжалось практически год, и завершилось лишь к концу 1994 г. В январе 1995 г., после недельной паузы, IME начали писать песни для их второго альбома. Ближе к лету музыканты начали работать с Полом Нортфилдом (Rush, Hole, Ozzy, Geezer Butler), сопродюссером при записи данного альбома выступил один из братьев основателей Ягори. Альбом был записан в Торонто осенью, при использовании главным образом своего собственного звукозаписывающего оборудования и сведён с декабря по январь в Studio Morin Heights в Квебеке. «Scenery & Fish» увидел свет весной 1996 г. Истосковавшись по гастролям и своим фанатам, I Mother Earth отправились в бесконечное турне исколесив всю Северную Америку возвращаясь от побережья к побережью. Успех группы достиг максимальных высот, поскольку статус нового альбома IME начал превышать дважды платиновый. Однако, напряженные отношения внутри группы росли и приводили к всё большим разногласиям с вокалистом Эдвином. Они согласились завершить свои гастроли туром по Канаде (Edgefest tour), прежде чем их пути разошлись. После почти года поисков нового вокалиста, I Mother Earth познакомились с Брайаном Бирдом через общего друга, Нил Басби, который играл с Брайаном в группе Claven. Появление нового участника положительно повлияло на состояние и боевое дух команды и IME начали писать материал для их третьего альбома. Ближе к зиме IME еще раз завербовали Пола Нортфилда в качестве сопродюсера альбома основным продюсером вновь выступил Ягори . Они снова вернулись в Studio Morin Heights, где Кристиан начал писать барабаны для нового опуса группы под названием «Blue Green Orange». Заключительная часть работы над альбомом производилась в собственной звукозаписывающей студии группы Stigsound в Торонто. Сведение альбома было поручено известному продюсеру по имени Дэвид Боттрилл. Ранее Боттрилл работал с такими группами и исполнителями как Tool, Peter Gabriel, King Crimson, Godsmack, MuDvAyNe и Nusrat Fateh Ali Khan. Он как никто другой подходил для работы над звучанием группы. Обновлённые I Mother Earth не стали оттягивать момент знакомства публики с новым фронтменом группы Брайаном и выпустили сингл «Summertime In The Void». Песня раскрывает вокальные талант Брайанa, а видео завораживает зрителей его динамикой и энергичным поведением. I.M.E снова возвращаются к гастрольной деятельности. Брайан завоёвывает расположение большинства поклонников I.M.E.,а так же благодаря ему у группы появляется много новых фэнов. По прошествии месяцев «Blue Green Orange» завоёвывает статус золотого альбома в Канаде. Скрыть...
Популярные аккорды I Mother Earth:
алфавиту | просмотрам | случайно
  • Verse
    G ----------------------------------------------------------------------
    D ----------------------------------------------------------------------
    A ---7-6--------------7-6----/7-9-7-9-7------------7-6---7--------------
    E…
  • Riff 1: (intro, verse and chorus riff)
    
    G---2---0h2--2--0h2--2---2--0h2--2--0h2--2----------  (repeat a number of times until pre-chorus,
    D---------------------------------------------------  during which you play nothing)
    A-0---0----------------0---0------------------------
    E---------------------------------------------------
    
    
    Riff…
  • C                              F#
    We never tought that you were gone
                F               C
    until we turned the ligths on
                      F#
    and spoke to your god
    F                 Am                  G…
  • Acoustic Intro (0:00-0:16)
    |--------------------------------------|
    |--------------------------------------|
    |--------------------------------------|
    |-------14----12-----------------------| 
    |----------------14----14--14-14s12-12-|
    |-10s12----12-------12-----12-12s10-10-|
    
    
    |------------------------------------------|
    |------------------------------------------|
    |----------------------0-------------------|
    |--------------12------0-9----9s10s9-9-9-9-|
    |-10-(10)-(10)-10-(10)-0-9----9s10s9-9-9-9-|
    |--8---8----8---8---8----7--7--------7-7-7-|
    
    
    |-----------------------------|-------------|
    |-----------------------------|-------------|
    |-----------------------------|-------^0----|
    |-9s14-14-14----14------14-12-|-10----^9----|
    |-9s14-14-14----14------14-12-|-10----^9----|
    |-7s12-12-12-12-12------12-10-|--8----^7----|
    
    
    Palm-muted…
  • E------------------------------------|---------------------------------
    b------------------------------------|---------------------------------
    g------------------------------------|---------------------------------
    d------------9--------11----11h12----|--------9--------11----11--h12---
    a---8b(9)--------9-------------------|---9--------9--------------------
    e------------------------------------|---------------------------------
    
    E------------------------------------|
    b------------------------------------|
    g------------------------------------|
    d---------9---------11----12r--------|
    a---10--------10---------------------|
    e------------------------------------|…
  • Intro
    
    G|------------|------------|------------|
    D|------------|------------|------------|
    A|-drum intro-|------------|------------|
    E|------------|--0---------|--0---------|
    
    
    Verse and Chorus
    G|-------------------|
    D|-------------------|
    A|----7-7---5--5---5-|
    E|--0-----7------6---|
    
    
    Intro…
  • main riff			  riff 1
    		d7  or  d5
    e----------------x-------x---)------------------------------------------
    b----------------3-------x---)------------------------------------------
    g----------------5-------x---)------------------------------------------
    d----------------4-------7---)----------------------10b-----------------
    a--5-5-5-3-6-5---5-------5---)-----10h12-12-12p10-12---12-10h12-12-12p10
    e----------------x-------x---)------------------------------------------…
  • Intro (clean dist.)
    e---------------------------------------------------------
    b---------------------------------------------------------
    g--4----------------------3-----3-----3/4--4---3-----3----
    d--x----------------------x-----x-----x/x--x---x-----x-x--
    a--2-------------(2)-(2)-1-(1)-1-(1)-1/2--2---1-(1)-1-x--
    E--3-------------(3)-(3)-2-(2)-2-(2)-2/3--3---2-(2)-2-x--
    
    
    Verse…
Наверх