Аккорды «Idlewild»

Idlewild
Группа Idlewild сформировалась в 1995 году, в Эдинбурге, Шотландия. Родди Вумбл – девятнадцатилетний студент, учившийся на фотографа, только что переехавший в Эдинбург из севера Шотландии, встречает Колина Ньютона, вовремя одной из студенческих вечеринок в Толл Кросс. Род Джонс который тоже был на этой вечеринке не познакомился с ними в тот вечер. Колин, как и Родди тоже перебрался в Эдинбург из севера страны. У них обоих были общие корни и общие музыкальные интересы ( Pavement, Sonic Youth, REM,… Читать полностью... Группа Idlewild сформировалась в 1995 году, в Эдинбурге, Шотландия. Родди Вумбл – девятнадцатилетний студент, учившийся на фотографа, только что переехавший в Эдинбург из севера Шотландии, встречает Колина Ньютона, вовремя одной из студенческих вечеринок в Толл Кросс. Род Джонс который тоже был на этой вечеринке не познакомился с ними в тот вечер. Колин, как и Родди тоже перебрался в Эдинбург из севера страны. У них обоих были общие корни и общие музыкальные интересы ( Pavement, Sonic Youth, REM, Deus, Superchunk, Bob Dylan). К концу вечера они договорились о формировании группы. Род Джонс, познакомившийся с ними днём позже, заявил на предложение о сборе группы, сказал, что он уже играет, и новые члены им не нужны. Вскоре, правда, Род согласился играть с ними, приведя с собой друга – басиста, Фила Скэнлона. И в декабре 1995 года они стали репетировать в снимаемой ими, холодной квартире. Они отыграли свой первый концерт 16 января 1996 года, в Эдинбурге, в клубе “Сабвэй”. Первый успех подвигнул на новые выступления, следующим местом стало “Кэс Рок Кафе”. Это место стало тренировочной базой для группы, и в мае того же года, имея в запасе уже около двадцати собственных песен, они отправились в студию Сплит Левел, где были записаны три песни( “House Alone”, “Suicide” и “Paranoid”). Запись была разослана на разные радиостанции и получила достаточно лестные отзывы в прессе. Продюсер группы предложил для записи свою собственную студию, большую чем та, на которой они записали свои первые песни. И в октябре того же года на студии Чембер, были записаны “Queen of Troubled Teens”, “Self Healer” и “Faster”. Первая запись была сделана на студенческие деньги участников. В феврале 1997 года из группы уходит Фил Сканлон, решив посвятить себя учёбе(сейчас стал преуспевающим инженером о в области химии, живёт в Детройте). На смену Филу приходит друг Рода Джонса, Боб Фаэрфул. Первое выступление в новом составе прошло в Глазго, 28 февраля 1997 года. Дебютный мини – альбом “The Queen Of Troubled Teens” был выпущен 17 марта 1997 года. Благодаря, ведущему одного из Английских радио Radio One Стиву Ламаку, поставившему в своём эфире песню Idlewild “Self Healer”, шумиха вокруг группы нарастала, и вскоре поступили предложения выступить в Лондоне. За ними последовали первые интервью журналам NME и Melody Maker. Записанные синглы привлекли внимание английских звукозаписывающих компаний. Многие из участников, тем не менее продолжали работать помимо группы. После выхода альбома “Captain”, в конце 1997 года, в начале 1998 года, как группа сопровождения они едут в турне вместе с поп – панк группой Midget. Первые плоды дал выход сингла “Film for a Future”, состоявшийся в апреле 1998 года. За ним последовал выход альбома “Hope Is Important”, а затем мировые гастроли, по США, Японии, и странам Европы. Год 1999 был отмечен туром NME вместе с Manic Street Preachers и Placebo. Вышедший сингл “When I argue I see shapes”, занял в хит – листе Великобритании скромное 19 место. После тура группа вернулась в Эдинбург и стала писать новые песни. Группа отыграла в Шотландии достаточно концертов. И вскоре записала новый альбом “100 Broken Windows”. Альбом отличался своим жёстким звучанием и был записан при участии одного известного техника, работающего с инди – группами – Боба Вестона. Альбом “100 Broken Windows”, достиг 15 места. Альбому приписывали звучание ранних REM и Echo & The Bunnymen, кто – то из критиков сравнивал их даже с The Smiths. Альбом вскоре достиг статуса серебренного в Великобритании. Группа становилась всё более популярной, готовясь к записи своего самого удачного альбома “The Remote Part”. Выпуски синглов “You Held The World In Your Arms” и “American English”, принесли группе огромную популярность и возвели её в разряд рок – звёзд. В 2005 году был выпущен следующий альбом под названием “Warnings/Promises“ достигший в чартах Соединённого Королевства 9-го места. Последний студийный альбом на данный момент выпущен группой в 2007 году. Он был назван “Make Another World“, он смог достичь 24-го места. Через несколько месяцев группа порвала контракт с Sanctuary Records и пустилась в свободное плавание. В 2009 году из стана коллектива приходит известие о уже готовом новом альбоме, и группа делает интересный ход - поклонникам предлагается выслать ей некоторое количество денег в обмен на копию альбома на физическом носителе до официального релиза. Также участники попросили ни в коем случае не загружать альбом в интернет, однако просьбы группы были проигнорированы, и уже в июне новые песни вовсю "гуляли" по интернету. Так или иначе, официальный релиз альбома произошёл 5 октября на лейбле Cooking Vinyl. Из-за фактического отсутствия промоушена, пластинка заняла лишь 90-е место в британских чартах. С альбома вышел единственный сингл Readers & Writers. Тем не менее, группа выступила на многих ведущих музыкальных фестивалях Великобритании. Скрыть...
Популярные аккорды Idlewild:
алфавиту | просмотрам | случайно
  • Intro/ Chorus
    
    E|------------------------------------------------------------|
    B|------------------------------------------------------------|
    G|------------------------------------------------------------|
    D|---11--13--13h14--13--9--13--13h14--13--9--13--11--13--11---|…
  • Intro Riff
       F#5      C#     D#5
    e -----------------------------------------------
    B -----7-----6-7-6-----4-6-6h7-6-4-6-------------
    G ---6---6-6---------3---------------------------
    D -8---------------4---4-6-6h8-6-4---------------
    A…
  • THIS IS THE INTRO AND MAIN RIFF WHICH PLAYS THE SAME THROUGH THE VERSES THROUGHOUT THE WHOLE SONG 
    
    E------------------------------------------
    B------------------------------------------
    G-------------9----------------9---------
    D------0------------0----0---------------
    A----------------------------------------0-
    E-------------------------------------------
    
    E-------------------------------------------|
    B-------------------------------------------|
    G------9---------------9-------------------|REPEAT
    D---------------------------0---------------|
    A-----------0---0--------------0-----------|
    E--------------------------------------------|
    
    
    THIS…
  • 1903              -    		70  
    		
            C	
    
    E----0-----0-----0--0-----0----------0----0----
    B----1-----1-----3--3-----1----------1----1----
    G----0-----0-----0--0-----0----------0----0----
    D----2-----2-----2--2-----2----------2----2----
    A----3-----3-----3--3-----3----------3----3----
    E----------------------------------------------
    
    			I…
  • Standard tuning
    
    ------------------------------------------------------------------------------|
    ------------------------------------------------------------------------------|
    -----1--------1---------------------------------------------------------------|
    -5-------5--------5--------------1--------------1-----------------------------|
    ---6-------6--------6--------6--------------8------8--------------------------|
    -------------------------4----------4---6-------------------------------------|…
  • Verse Riff
    There are times that i should try...
    Eb-----------------------------------|
    Bb-----------------------------------|
    Gb------0-----0---------0-----0------|
    Db----0-----0-----0---7-----7-----7--|
    Ab--------3-----2---5-----5-----5----|
    Eb--3--------------------------------|…
  • ro-o-se ability....                                             x2
    g----------------------------------------------------------------
    d----------------------------------------------------------------
    a---------------------------------2-2-2-2-2-2-2-2-2-2-2-2-2-2-1-1…
  • Chords to use:
    B -  799877
    Abm- 466444
    E -  022100
    F# - 244322
    
    Intro: (this is played 3 times before the chords + vocals kick in)
    
    Guitar 1 plays this throughout every verse.
    
    e-----------------|
    B-13--------------|
    G---12------------|
    D------15---14----|
    A-----------------|
    E-----------------|
    
    
    Verse…
  • |---------------------------------------------------------------------------
    |---------------------------------------------------------------------------
    |---------------------------------------------------------------------------
    |-3-3-3-3-3-0-0-0-3/6-6-6-6-6-0-0-0-3-3-3-3-3-0-0-0-3/6-6-6-6-6-(0)-(0)-(0)-
    |-3-3-3-3-3-0-0-0-3/6-6-6-6-6-0-0-0-3-3-3-3-3-0-0-0-3/6-6-6-6-6-(0)-(0)-(0)-
    |-3-3-3-3-3-0-0-0-3/6-6-6-6-6-0-0-0-3-3-3-3-3-0-0-0-3/6-6-6-6-6-(0)-(0)-(0)-
    
    guitar…
  • verse
    g----------------
    d---------------*
    a-5-5--5--5-4--5*
    e----------------
    
    
    chorus
    g---------------
    d-----------3-3*
    a-5-5-4-4-4----*
    e---------------
  • Riff 1 played over the verse
    
         G                     D                    C                     D
    eb----------3-------------------2-----------------------0------------------2-----------|
    Bb--------3-----3---3---------3-----3---3-------------1-----1---1--------3-----3---3---|
    Gb----------------0-------------------2-----------------------0------------------2-----|
    Db-------------------------0------------------------------------------0----------------|
    Ab----------------------------------------------3--------------------------------------|
    Eb---3---------------------------------------------------------------------------------|
    
    
    Verse…
  • Chords used:
    
    B:    799877
    A#m:  688666
    G#m:  466444
    F#:   244322
    C#:   x4666x
    D#:   x6888x
    
    
    B       A#m           G#m
    It's a better way to feel
    Don't be real, be post modern
          B              A#m             G#m
    (it's…
  • INTRO/MAIN RIFF
     THIS RIFF REPEATS ITSELF UNTIL THE PRE-CHORUS  
    
    E----------------------------------------------------
    B----------------------------------------------------
    G----------------------------------------------------
    D---------7-------------7----------------------------
    A----5--------5---------------------5---------7--7---
    E-----------------6---------6----3-----3/-5-5--------
    
    
    PRE-CHORUS…
  • intro/chorus
    G--------------------------------------------------------------------
    D--------------------------------------------------------------------
    A-------8-8-6-6-------6-6-4-4-------8-8-6-6-1-1-1-1-1-1-1-1-4-4-4-4-4-4-4-4
    E-4-*4*---------4-*4*---------4-*4*----------------------------------------
    
    
    verse/solo
    g-----------------
    d-----------------6
    a-----6---6---4-4--
    e-4-4---4---4----…
  • you look worn out
    g---------------------------------------------------------------------------------------- 
    d---------------------------------------------------------------------------------------- 
    a-6-6--6-6--6-6--6-6-6-6-----------------------------------------------------------------…
  • Tuning: E A D G B E
    
    
    Chords Fingered/Used:
          E A D G B E
    D -   X X 0 2 3 2
    Dsus4-X X 0 2 3 3
    A  -  X X 2 2 2 X
    C5 -  X 3 5 5 X X
    D5 -  X 5 7 7 X X
    G5 -  3 5 5 X X X
    G#5-  4 6 6 X X X
    A#5-  6 8 8 X X X
     
    
    Intro:
       D…
  • Intro/Verse:
    e --------------------------------
    B --------------------------------
    G -----4/11--9--9---------4/11--9-
    D ---4------------------4---------
    A -2---------------0--2-----------
    E --------------------------------
    
    
    Bridge:
    e…
  • Intro riff
    e -2-------------2---------------------------------
    B ---------2-0-0---------2-0-----------------------
    G ---4-3-4---------4-3-4---------------------------
    D -------------------------------------------------
    
    
    (Verse…
  • g----------------------------
    d-1-1-1--1-1-1--1-1-1--1-1-1-
    a----------------------------
    e----------------------------
    
    g---------------------
    d---------------2-2-2-
    a-------------2-------
    e-4-4-4-2-0-2---------
    
    g-----------------4-4-4-
    d-1-1-1-1-2-2-2-2-------
    a-----------------------
    e-----------------------
    
    g-----------------------
    d-1-1-1-1-2-2-2-2-4-4-4-
    a-----------------------
    e-----------------------…
  • O Flower...      When will...          Your like...
    E--15-15--1311-11-----------11--15-13----13-11--13-15--|
    B-------------------11----11----------------------------|
    G-------------------------------------------------------|
    D-------------------------------------------------------|
    A-------------------------------------------------------|
    E-------------------------------------------------------|…
  • Intro:
    
    E [-----------------------------------------------------------------]
    B [-----------------------------------------------------------------]
    G [-----6-------6-------6-------6-------6-------6-------6-------6---]
    D…
  • IT 	FELT	 COLD	       INSIDE……
    
    E--------------------------------------------------
    B--------------------------------------------------
    G--------------------------------------------------
    D---------0--------0-----------------0-------0-----
    A------9--------9--------9-/-----12-------12-----12
    E---7--------7--------7------10--------10------10--
    
    
    SO…
  • Standard tuning
    
    Chords:                 
       A5  B5  C#5  E5 C#/B5 G#5
    e|---------------------------|
    B|---------------------------|
    G|-----4----6----9---4-------|
    D|-7---4----6----9---4----6--|
    A|-7---2----4----7---4----6--|
    E|-5----------------------4--|
    
    
    Intro/Verse…
  • intro
    no bass
    
    
    verse and prechorus/chorus part one thingy
    A------1-1-1 about 50 times
    
    
    chorus part 2
    E-2-2-2-2-2-2-2-2-1-1-1-1-1-1-1-1-0-0-0-0-0-0-0-0
    
    you do the chorus part one and then 2 twice through then go back to…
  • Verse - You thought the fire would protect you from it....
    g---------------------------------
    d------------------1-1-1----4-4-4-
    a-4-4-4-4-4-4-4-------------------
    e---------------------------------
    
    
    Pre chorus - but actually…
Наверх