Аккорды «Iggy Pop»

Iggy Pop
Игги Поп (англ. Iggy Pop, настоящее имя James Newell Osterberg, Jr. — Джеймс Ньюэл Остерберг младший, род 21 апреля 1947 г.) — американский рок-вокалист, один из зачинателей и гуру альтернативного рока. За вклад в развитие рок-альтернативы его величают «крёстным отцом» (иногда «дедушкой») панк-рока и гранжа. В 2009 году авторитетный британский журнал «Classic Rock» удостоил его званием «Живая легенда». В конце 1960-х — начале 1970-х годов Игги Поп был солистом в рок-группе The Stooges, которая… Читать полностью... Игги Поп (англ. Iggy Pop, настоящее имя James Newell Osterberg, Jr. — Джеймс Ньюэл Остерберг младший, род 21 апреля 1947 г.) — американский рок-вокалист, один из зачинателей и гуру альтернативного рока. За вклад в развитие рок-альтернативы его величают «крёстным отцом» (иногда «дедушкой») панк-рока и гранжа. В 2009 году авторитетный британский журнал «Classic Rock» удостоил его званием «Живая легенда». В конце 1960-х — начале 1970-х годов Игги Поп был солистом в рок-группе The Stooges, которая сильно повлияла на развитие зарождающихся хард-рока и панк-рока. The Stooges стали скандально известными своими концертными выступлениями, часто в ходе которых Игги (традиционно выступавший с обнаженной грудью) калечил себя, оскорблял зрителей, раздевался и прыгал со сцены (первым использовал stage dive). The Stooges были семь раз неудачно номинированы на включение в Зал славы рок-н-ролла, наконец 15 декабря 2009 было объявлено, что они будут введены туда в 2010 году. 15 марта 2010 года The Stooges были включены в зал славы рок-н-ролла. Популярность Игги не раз менялась на протяжении всей его последующей сольной карьеры. Его наиболее известные сольные песни — «Lust for Life», «I’m Bored», «Real Wild Child», «The Passenger» и хит-сингл «Candy» (дуэт с вокалисткой The B-52’s, Кейт Пирсон) попавший в Top 40. Биографический фильм о его жизни и карьере под названием The Passenger находится в разработке. Прозвище «Игги» ему дали Майкл Эрлевайн и прочие товарищи по группе «Prime Movers» за то, что Остерберг прежде играл в группе «The Iguanas». С 1990-х много снимается в кино. Скрыть...
Популярные аккорды Iggy Pop:
алфавиту | просмотрам | случайно
  • Intro (acoustic):
    Em9 D/E C/G A
    Eb-------2----------0--------3----------------------------------------------|
    Bb---------0----------3--------0------2-------------------------------------|
    Gb-----------0----------2--------0-------2----------------------------------|
    Db----------------0------------------------2--------------------------------|
    Ab-------------------------3-------0----------------------------------------|
    Eb----0---------------------------------------------------------------------|
    
    and…
  • Verse
    e|--------------------------------------------------------------------------|
    B|--------------------------------------------------------------------------|
    G|-12----11-----9-----------------------------------------------------------|
    D|-12-x4-11-x4--9-x8--------------------------------------------------------|
    A|-10----9------7-----------------------------------------------------------|
    E|-0-----0------0-----------------------------------------------------------|
    
    Chorus
    e|---------------------------------------------------------------------------|
    B|---------------------------------------------------------------------------|
    G|-12----11-----9------------------------------------------------------------|
    D|-12-x4-11-x8--9-x4------------all…
  • Intro: 2 times
    Eb|-x-x-x------------------------------------------|
    Bb|-x-x-x------------------------------------------|
    Gb|-x-x-x--------------------7----7--7-------------|
    Db|-x-x-x---4--4---2h4---2---7----7--7---7----7--7-|
    Ab|-x-x-x---4--4---2h4---2---5----5--5---7----7--7-|
    Eb|-x-x-x---2--2---0h2---0---------------5----5--5-|
    
    Bridge:…
  • e----------------------------------
    b----------------------------------
    g-------------------4-4---4-----4--
    d-4-4---4-x---4-----4-4-0-4-x-0-4-0 x3
    a-4-4-0-2-x-0-4-0---2-2-0-2-x-0-2-0
    e-2-2-0-2-x-0-2-0-----------x------
    
    
    e------------------
    b------------------
    g------------------
    d-4-4---4-x---4----…
  • Intro (distortion)
    E|----------------------|---------------|-----10--10-10-10----|
    B|----------------------|---------------|-----10--10-10-10----|
    G|-------------------10-|---------------|-----11--11-11-11----|
    D|-12-12-12-12-12⁄10-10-|-8-8-8-8-8--10-|-----12--12-12-12----|
    A|-12-12-12-12-12⁄10-8--|-8-8-8-8-8--10-|-----12--12-12-12----|
    E|-10-10-10-10-10⁄8-----|-6-6-6-6-6--8--|-10--10--10-10-10----|
    P.M.----------------------------------|
    
    Intro…
  • -8--11--13--15--18--15--13--11--8-|-8--11--13--15--18-15-13-11-8|-8--11--13---|
    ----------------------------------|-----------------------------|-------------|
    ----------------------------------|-----------------------------|-------------|
    ----------------------------------|-----------------------------|-------------|
    ----------------------------------|-----------------------------|-------------|
    ----------------------------------|-----------------------------|-------------|
    
    
    -15--18--15--13--11--8|-8--11--13--15--11--8-8|-------------------------------|
    ----------------------|-----------------------|-------------------------------|
    ----------------------|-----------------------|-------------------------------|
    ----------------------|-----------------------|-------------------------------|
    ----------------------|-----------------------|-------------------------------|
    ----------------------|-----------------------|-------------------------------|
    Bell…
  • |--------------------------------------------------------------------|
    |---12--12----------------------10--10-------------------------------|
    |-----------12--12--9--9----------------11--11-----------------------|
    |-------------------------10--------------------10--10--9------------|
    |--------------------------------------------------------------------|
    |--------------------------------------------------------------------|
    
    
    |--------------------------------------------------------------------|
    |---12--12----------------10-----------------------------------------|
    |-----------12--12--9--9------12--11--9---8--8--9--11--9--9--8--9----|
    |--------------------------------------------------------------------|
    |--------------------------------------------------------------------|
    |--------------------------------------------------------------------|…
  • Intro:
    |-----------------|
    |-----------------|
    |-----------------|(x4)
    |-0-0-0-0-0-0-0-0-|
    1 & 2 & 3 & 4 &
    
    Verse:
    E (x4) A (x2) E (x2)
    |-------------------|-------------------|-------------------|
    |*-----------------*|*-----------------*|*-----------------*|
    |*-----------------*|*-----------------*|*-----------------*|
    |--0-0-0-0-0-0-0-0--|--5-5-5-5-5-5-5-5--|--0-0-0-0-0-0-0-0--|
    1…
  • Intro/verse
    E5 G A G
    ---------------|
    ---------------|
    ---------------|
    -2-2--5---7--5-|
    -2-2--5---7--5-|
    -0-0--3---5--3-|
    
    verse
    
    The cops are well-groomed,
    with Muscled physiques
    in Butt Town
    
    Their tan uniforms
    are tailored…
  • Intro
    Q=106
    Am
    4/4
    Gtr II
    E Q H H H H H H H H
    | | | |
    / / / /
    
    Gtr I
    E E E H +E E E E H Q E E H +E E E E H +E E E E
    |-5-----||-5----(5)-5-----|-5---------5-|-5----(5)---5---|-5----(5)--------||
    |-5-7---||-5----(5)-5---5-|-5----5--5-5-|-5----(5)-5-5---|-5----(5)-5-7----||
    |-5-7-5-||-5----(5)-5-7-5-|-5----5--7-5-|-5----(5)-5-7-5-|-5----(5)-5-7----||
    |---7-5-||------------7-5-|------5----5-|----------5---5-|------------7-5--||
    |-------||----------------|-------------|----------------|-----------------||
    |-------||----------------|-------------|----------------|-----------------||
    
    
    Faster…
  • Drop D - (tune the 7th fret of the bottom E string so it sounds
              exactly the same as the open A string above it).
    
    Main Riff
    E|--------------------------|
    B|--------------------------|
    G|--------------------------|
    D|-0-0-1-0-3-0-1-0--6-5-3-0-|
    A|-0-0-1-0-3-0-1-0--6-5-3-0-|
    E|-0-0-1-0-3-0-1-0--6-5-3-0-|
    
    Pre-Chorus…
  • G   C    Em
    (spoken)
    It's a rainy afternoon
    In 1990
    The big city geez it's been 20 years-
    Candy-you were so fine
    
    G
    Beautiful beautiful
    C
            Em
    Girl from the north
    G
    You burned my heart
    
    C
      D
    With a flickering torch…
  • Intro
    G|------------------------------------------------------|
    D|------------------------------------------5/7-5---5-7-|
    A|------------------------------------------------7-----|
    E|5-5-5-5-5-5-5-2/33/44/5-5-5-5-5-5-5-5-5-5-------------|
    
    Riff…
  • Fig.1 (Intro, Verse and Corus)
    E---------------+------------------+---------------+------------------+
    B----------3----+-------3--5-3-----+---------------+-5-3---3----------+
    G----5----------+-5----------------+----5-----3----+-----5-----5--2---+
    D---------------+------------------+---------------+------------------+
    A-0-----0-----0-+----0-------------+-0-----0-----0-+------------------+
    E---------------+------------------+---------------+------------------+
    
    Fig.2…
  • E B A
    When I'm asleep, you touch my feet
    E B A
    You let me know that I am no creep
    E B A
    Because I love you, you are for real
    E B A
    I'm gonna stay here - pumping for Jill
    
    
    E B A ( 2 x )
    
    
    E B A
    In the gas station where I…
  • intro (quietly)
    E||----------------------||
    B||-------6-----6/8------||
    G||--4/6-------------6---||
    D||----------------------||
    A||----------------------||
    E||----------------------||
    
    
    riff 1 riff 2
    E||---------------------------|------------------------|
    B||---------------------------|------------------------|
    G||---8--6------------4-------|----8--6-----------4-6b-|
    D||-6--------4--6--4-----6----|--6-------4--6--4-------|
    A||---------------------------|------------------------|
    E||---------------------------|------------------------|
    
    play…
  • E----------------------------------------------------------------------
    B---------------------------------------------------------------------
    G---------5------7B-5----5-----------------------------------------
    D-7-7-7-5--7-7-----5-7-5-7----------------------------------------
    A-0-0-0-----0-0-------0----0----------------------------------------
    E---------------------------------------------------------------------
    
    This…
  • Intro 8x
    |-------------------------------------|
    |-------------------------------------|
    |-------------------------------------|
    |-------------------------------------|
    |---5---5---12--11--10----8--8---5----|
    |---3---3---10--9---8-----6--6---3----|
    
    Verse
    |---------------------------------------------------------------|
    |---------------------------------------------------------------|
    |-----------------------------------8-----8-------7-------7-----|
    |------------------------5---3--------8-----8--------7-------7--|
    |-5-5-----3---5------------------6------6------5--------5-------|
    |-3-3--3----------6---3-----------------------------------------|
    
    
    Chorus:…
  • Chords:
    
    Am/E  F   C   G/B
    Am/E  F   C   E/B
    
    I am the passenger
    And I ride and I ride
    I ride through the city's backside
    I see the stars come out of the sky
    Yeah, they're bright in a hollow sky
    You know it looks…
  • Songs actual beggining after the  A7 : 
    --------------------------------------------------------------| 
    -----------------------------3--------------------------------| 
    ------5--------3----------4-----------------------------------|…
Наверх