Аккорды «Ill Niño»

Ill Niño
Латиноамериканский секстет Ill Niño был сформирован в Нью-Джерси, США, в 1999 году. El Niño - явление прогревания поверхностных вод у берегов Южной Америки, последствия которого - массовая гибель рыбы и наводнения. Группа была основана ударником Дэйвом Чаварри в Нью-Джерси в 1998 году, изначально под названием El Nino. Первым составом группы стали Дэйв Чаварри (ударные), Лазаро Пина (бас-гитара), Ярдель Пайсанте (гитара) и Хорхе Розадо (вокал). Место Розадо вскоре занял Кристиан Мачадо. Группа… Читать полностью... Латиноамериканский секстет Ill Niño был сформирован в Нью-Джерси, США, в 1999 году. El Niño - явление прогревания поверхностных вод у берегов Южной Америки, последствия которого - массовая гибель рыбы и наводнения. Группа была основана ударником Дэйвом Чаварри в Нью-Джерси в 1998 году, изначально под названием El Nino. Первым составом группы стали Дэйв Чаварри (ударные), Лазаро Пина (бас-гитара), Ярдель Пайсанте (гитара) и Хорхе Розадо (вокал). Место Розадо вскоре занял Кристиан Мачадо. Группа привлекла внимание Roadrunner Records и в 2001 выпустила дебютный альбом Revolution Revolución. Перед выходом альбома музыканты были вынуждены слегка изменить название группы, так как «Эль Ниньо» было уже занято. Группа проехала с туром по США и приняла участие в фестивале Оззи Осборна Ozzfest 2002. В 2003 году Ill Nino выпустили второй альбом, Confession. Как и первый, он представлял собой альтернативный метал с вкраплениями музыки латино. Альбом попал в сотню самых продаваемых за год по данным рейтинга Billboard, всего было продано 110,000 копий за пять первых месяцев. Песня «How Can I Live» вошла в саундтрек фильма «Фредди против Джейсона» и была выпущена отдельным синглом. Тур в поддержку альбома был выпущен на DVD Live From the Eye of the Storm. Третий альбом, One Nation Underground, вышел в 2005 году. Его продажи были значительно менее успешными. Ill Niño заявили об уходе с Roadrunner Records, который, по их мнению, не уделял достаточного внимания их продвижению. Группа перешла на Cement Shoes Records. Однако Roadrunner в 2006 году еще доиздал сборник хитов the Best of Ill Niño. В том же 2006 году группа выпустила мини-альбом the Under Cover Sessions с кавер-версиями песен Nirvana, Faith No More и Питера Гэбриела. Четвёртый альбом Enigma был записан уже в 2007 году, но официально вышел только в марте 2008 года. За первую неделю было продано 5000 копий альбома, в результате чего он попал на 145 место в чарте Billboard. В поддержку альбома Ill Niño побывали с концертами в Европе, в Северной и Южной Америке. В январе 2009 года группа рассталась с Cement Shoes Records. Во время перерыва в деятельности группы большая часть музыкантов занялась продюсированием и звукозаписью в своих компаниях: Дэйв Чаварри в C.I.A. Management, Кристиан Мачадо и Лазаро Пина в Sound Wars Studios, Айрю Ластер в Illustrious Productions. В отличие от коллег Диего Вердузо был занят в своём тату-салоне Artifact Tattoo. В марте 2010 года Ill Niño подписали контракт с Victory Records. В октябре 2010 года вышел альбом Dead New World. В ноябре 2010 года был выпущен клип на песню Against The Wall. В январе-феврале 2011 года группа отправляется в тур по США, а в марте — в Австралию. В феврале 2012 года группа начинает запись шестого альбома. Альбом получил название Epidemia. Осенью 2012 года группа отправится в турне в поддержку этого альбома Скрыть...
Популярные аккорды Ill Niño:
алфавиту | просмотрам | случайно
  • Tuning (C-G-C-F-A-D)
    
    Intro: 0:08 
    D|------------------------------------|
    A|------------------------------------|
    F|---------------------------55555555-|
    C|-1p0-00--3p1-1-1p0--1p000--55555555-|
    G|-1p0-00--3p1-1-1p0--1p000--33333333-|
    C|-1p0-00--3p1-1-1p0--1p000-----------|
    
    Verse:…
  • Drop D Tuning
    
    verse(after 1 guitar verse) :
    
    |-----------
    |-----------     x 4     
    |-----------
    |---11111-0-
    
    main riff :
    
    |-----------------------------------
    |-----------------------------------     x 2
    |-----------------------------------
    |---000001-1000001-1000001-1h0-00-00
    
    verse…
  • x = mute
    . = palm mute
    
    Intro (behind samples)
    -----
    -----
    -----
    -----
    --0--
    --0--
    
    Killer Riff #1
    ------------------------------------------------------
    ------------------------------------------------------
    ------------------------------------------------------
    ------------------------------------------------------
    --0-0--12-12-12-12h13p12-10--12-12-12-13-13-10-10-10--
    --0-0--12-12-12-12h13p12-10--12-12-12-13-13-10-10-10--
    
    Verse
    -------------------------------------------------------
    -------------------------------------------------------
    -------------------------------------------------------
    -------------------------------------------------------
    --0-0-0--0-0-0-0-0-0-0-0--0-0-0--0-0-------------------
    --0-0-0--0-0-0-0-0-0-0-0--0-0-0--0-0--0h1-1-1-1h3-3-3--…
  • intro riff:
    |----------------------
    |----------------------         x 8
    |---3h2------3h2-----
    |--------3h0-----3h0
    
    main riff:
    |--------------------------------
    |--------------------------------        x 4
    |--------------------------------
    |---4-4-4-4h5-43-4-4-4-6-3
    
    verse…
  • INTRO
    G|-------------------------------------------------|
    D|-------------------------------------------------|
    A|-------------------------------------------------|
    E|-------------------------------------------------|
    B|-0-66-0-6-0---0-66-0-6-0---0-66-0-6-0---00000000-|
    VERSE…
  • C Tuning
    
    x = mute
    . = palm mute
    
    Intro (played in verse aswell)
    ------------------------------
    ------------------------------
    ------------------------------
    --6-0-6-0-6-5--0-6-0-6-0-6-5--
    --6-0-6-0-6-5--0-6-0-6-0-6-5--
    --6-0-6-0-6-5--0-6-0-6-0-6-5--
    
    Verse…
  • Note lengths are written below the measures : 
       w - whole note 
       h - half note 
       q - quarter note 
       e - eight note 
       s - sixteenth note 
       t - thirty-second note 
     
     Rest are noted as capitalized note lengths…
  • C Tuning
    
    x = mute
    . = palm mute
    
    Intro (lightly palm muted)
    ------------------------------------
    ------------------------------------
    ------------------------------------
    ------------------------------------
    ------------------------------------
    --13-12-0-12-13-0--13-12-0-12-13-0--
    
    ---------------
    ---------------
    ---------------
    --0-0-0-0-0-0--
    --0-0-0-0-0-0--
    --0-0-0-0-0-0--…
  • .=Palm Mute
    
    Intro
    ----------------------------------------
    ----------------------------------------
    ----------------------------------------
    ----------------------------------------
    --0-0--------0-0--------0-0--------0-0--
    --0-0--------0-0--------0-0--------0-0--
    
    Riff…
  • short intro bit
    f -------------------------
    c -------------------------
    g -------------------------
    c -3-2~-------------32---
    intro
    f ------------------------
    c -----------------------
    g -----------------------
    c –3-2-0---320-------
    verse…
  • TUNING: drop D then lower 2 STEPS DOWN
    
    (00:14)
    D|--------15-|---------15-|
    A|--7-8------|-15-14------|
    F|-----------|------------|
    C|-----------|------------|
    G|-----------|------------|
    C|-----------|------------|
    
    (00:24)
    D|---------------|
    A|---------------|
    F|---------------|
    C|-1--1--1-1-1-0-|
    G|-1--1--1-1-1-0-|
    C|-1--1--1-1-1-0-|
    
    (02:00)
    D|-14-15-14-15-14-15-14-15--15---7-|
    A|---------------------------------|
    F|---------------------------------|
    C|---------------------------------|
    G|---------------------------------|
    C|---------------------------------|…
  • Drop-D down a whole step (CGCFAD) 
    
    Intro:
    e|----------------------|
    B|----------------------|
    G|----------------------|
    D|---------2-0----------|
    A|---------2-0---0---0--|
    E|-0-0-0-0-2-0---0---0--|
       * * * * *…
  • Start after all of the talking
    intro:
    |------------
    |------------          x 2
    |------------
    |---0~------
    
    main riff:
    |----------------------------------
    |----------------------------------         x 2
    |----------------------------------
    |---2-2-0-2-2-0-2-2-0-4h3-5--------
    
    alternate…
  • TUNED: drop C   (C,G,C,F,A,D)
    
    Intro:
    
    GUITAR 1
    D|------------------------|
    A|------------------------|
    F|------------------------|
    C|-3-2-0-2-3-2--2-2-2-3-2-|
    G|-3-2-0-2-3-2--2-2-2-3-2-|
    C|-3-2-0-2-3-2--2-2-2-3-2-|  3x
    
    D|----------------------|
    A|----------------------|
    F|----------------------|
    C|-3-2-0-2-3-2--2-2-2-2-|
    G|-3-2-0-2-3-2--2-2-2-2-|
    C|-3-2-0-2-3-2--2-2-2-2-|
    
    D|------------------------|
    A|------------------------|
    F|------------------------|
    C|-3-2-0-2-2--2-3-2-0-2-2-|
    G|-3-2-0-2-2--2-3-2-0-2-2-|
    C|-3-2-0-2-2--2-3-2-0-2-2-|
    
    D|----------------------|
    A|----------------------|
    F|----------------------|
    C|-3-2-0-2-2--2-3-2-0-2-|
    G|-3-2-0-2-2--2-3-2-0-2-|
    C|-3-2-0-2-2--2-3-2-0-2-|
    
    D|------------------------|
    A|------------------------|
    F|------------------------|
    C|-3-2-0-2-2--2-3-2-0-2-2-|
    G|-3-2-0-2-2--2-3-2-0-2-2-|
    C|-3-2-0-2-2--2-3-2-0-2-2-|
    
    D|--------------------|
    A|--------------------|
    F|--------------------|
    C|-3-2-0-2-2--2-3-2-0-|
    G|-3-2-0-2-2--2-3-2-0-|
    C|-3-2-0-2-2--2-3-2-0-|
    
    
    GUITAR…
  • Tuning: D a d g b e
    
    P.M.=Palm mute
    >>>>= Slide
    
    Intro/ 1x
    e|-------------------------------------|
    B|-------------------------------------|
    G|-------------------------------------|
    D|-------------------------------------|
    A|-------------------------------------|
    D|-32020202-32020202-32020202-32020202-|
    
    Brige…
  • Tuning (E,A,D,G,B,E)
    
    Intro: G1..G2 Cminor
    e|--------------------------------------------|
    B|--------------------------------------6-----|
    G|---5-7-8-7-5-5-5-5----5-7-87-5-7-8-8---87-|
    D|-5------------------5-----------------------|
    A|--------------------------------------------|
    E|--------------------------------------------|
    
    Verse…
  • Drop C Tuning
    
    Intro & Verse (Clean, not sure. Play with some variations and improvisation)
    D|-----------------------|
    A|----3---3---3---1------|
    F|-----2---2---2---2-----|
    C|--0---0---0---0---0----|
    G|-----------------------|
    C|-0---------------------|
    
    Chorus…
  • tuning: Drop D and down 1 and 1/2 step ( B F# B E G# C# )
    
    riff 1       
    
    C#-------------------------------------------------------
    G#-------------------------------------------------------
    E--------------------------------------------------------
    B--------------------------------------------------------…
  • P= PULL OFF
    S= SLIDE
    
    INTRO AND VERSE
    GUITAR 1
    
    D---------------------------------------------------------------------|
    A---------------------------------------------------------------------|
    F---------------------------------------------------------------------|
    C--10-10-10-10-10-10-10-11-11-11--------------------------------------|
    G---------------------------------------------------------------------|
    C---------------------------------------------------------------------|
    
    
    GUITAR…
  • TUNED: drop C   (C,G,C,F,A,D)
    
    * = Play alot fast (only in solo)
    ----------------------------
    -Intro-
    Keyboard: Hold: G...F and play the G-G-G-G-G and F-F-F-F-F-F too
     
    Guitar 1 or 2:
    |-------------------------------------------------------------------------
    |---10---10---10---10---10------8----8----8----8--------------------------
    |-------------------------------------------------------------------------
    |-7----7----7----7----7--------5----5----5----5---------------------------
    |…
  • Veres
    F -----------------------------------------
    C -----------------------------------------
    G -5-------5--------5---------------------
    C----0000----0000-----—0000-88888888-
    
    Choures
    F ------------------------------------------------------------------
    C…
  • tune down 1 12 steps (C# F# B E)
    
            Intro                                           Well I don't
          ||-----------------------------------------------||-----------
          ||-----------------------------------------------||-----------…
  • Tuning: Drop C (C,G,C,F,A,D)
    
    harmonic
    PM . (palm mute)
    
    
    INTRO/BRIDGE
    D|--------------------------------|
    A|--------------------------------------------|
    F|--------------------------------------------|
    C|--3-2----3-33332---33332----3-33332---------|
    G|--3-2----3-33332---33332----3-33332---------|
    C|--3-2----3-33332---33332----3-33332---------|
    
    END…
  • TUNED: drop C   (C,G,C,F,A,D)
    
    
    INTRO
    
    |---------------|-------------|---------------|-------------|
    |---------------|-------------|---------------|-------------|
    |---------------|-------------|---------------|-------------|
    |-2-0-2-5-5-5-5-|-2-0-4-4-4-4-|-2-0-2-5-5-5-5-|-2-0-4-4-4-4-|
    |-2-0-2---------|-2-0---------|-2-0-2---------|-2-0---------|
    |-2-0-2---------|-2-0---------|-2-0-2---------|-2-0---------|
    
    |---------------|-------------|---------------|-------------|
    |---------------|-------------|---------------|-------------|
    |---------------|-------------|---------------|-------------|
    |-2-0-2-5-5-5-5-|-2-0-4-4-4-4-|-0-0-0-4-4-4-4-|-0-0-5-5-5-5-|
    |-2-0-2---------|-2-0---------|-0-0-0---------|-0-0---------|
    |-2-0-2---------|-2-0---------|-0-0-0---------|-0-0---------|
    
    
    
    VERSE…
Наверх