Аккорды «Impaled Nazarene»

Impaled Nazarene
Образованный в ноябре 1990 года, первый состав Impaled Nazarene выглядел так: Мика Луттинен (вокал), Киммо Луттинен (ударные), Мика Паакко (гитара), Ари Холаппа (гитара), Антти Пихкала (бас-гитара). Братья Луттинены ранее играли в Mutilation, и поэтому Nazarene начали с исполнения композиций этой группы. Однако вскоре парни взялись за написание нового материала, и в феврале 1991-го у них было готово демо "Shemhamforash". Заменив басиста на Харри Халонена, группа впервые появилась на публике.… Читать полностью... Образованный в ноябре 1990 года, первый состав Impaled Nazarene выглядел так: Мика Луттинен (вокал), Киммо Луттинен (ударные), Мика Паакко (гитара), Ари Холаппа (гитара), Антти Пихкала (бас-гитара). Братья Луттинены ранее играли в Mutilation, и поэтому Nazarene начали с исполнения композиций этой группы. Однако вскоре парни взялись за написание нового материала, и в феврале 1991-го у них было готово демо "Shemhamforash". Заменив басиста на Харри Халонена, группа впервые появилась на публике. В августе команда отправилась в известную финскую студию Tico Tico записывать еще одно демо, "Taog Eht Fo Htao Eht". Если прочесть это название наоборот, то получалось "Клятва козла". Соответствующей была и музыка - настоящий сатанинский металл. Довольно быстро Impaled Nazarene заслужили культовый статус в среде андеграундного металла, чему способствовал выход сингла "Goat Perversion" и появление группы на фестивале Day Of Darkness в Оулу. Спустя некоторое время коллектив сократился до трио, т. к. Холаппа и Халонен покинули команду. В облегченном составе группа отыграла несколько концертов, а затем заключила контракт с французским лейблом Osmose Productions, намереваясь записать дебютную пластинку. Для этого дела басист все-таки был необходим, и на сессионной основе пригласили Танели Ярва. Заодно поменяли и гитариста на Ярно Анттилу, а вскоре оба новичка сделались постоянными членами группы. Жесткий отвязной альбом "Tol Cormt Norz Norz Norz", записанный с их участием, стал очень удачным дебютом для Impaled Nazarene, попав на 40-ю позицию в финских чартах. После выхода следующей пластинки, "Ugra-Karma", группа отправилась в свое первое европейское турне в компании с Ancient Rites. Летом того же года музыканты вновь оказались в излюбленной "Tico Tico" и приступили к сессиям третьего альбома. Его рабочее название "Hail to Finland" в последний момент было изменено на "Suomi Finland Perkele". Из-за националистических текстов альбом вызвал смешанные реакции. Тем временем Impaled Nazarene вновь колесили по Европе, на этот раз вместе с Absu и Sadistik Exekution. В августе 1995-го банда опять собралась в студии, но сессиям в тот раз не суждено было начаться, поскольку вспыхнули разборки между Танели и Киммо, закончившиеся отбытием последнего. Какое-то время пришлось потратить на поиски нового ударника, которым в итоге стал Рейма Келлокоски. Перестановки на этом не закончились, и сразу же после записи диска "Latex Cult" банду оставил Танели, уступивший место Яни Лехтосаари. Следующие пару лет Impaled Nazarene занимались в основном концертной деятельностью, причем не стали ограничиваться одной Европой, а побывали также в Мексике, США, Канаде и России. Статус команды был уже довольно высок и на Montreal Metal Festival она выступила в качестве хедлайнера. Осенью 1998-го в группе появился еще один гитарист - Алекси Лайхо. Правда, он не смог выступать на всех концертах Nazarene (иногда его подменял Томи Уллгрен), но зато принимал участие в студийной работе. В 2000-м из группы ушел Лехтосаари, решивший сосредоточиться на работе своего лейбла Solardisk. К концу года вакансию заполнил Теему Райморанта из Finntroll, но вскоре выяснилось, что ему больше подходит роль лидер-гитариста, а бас-гитару вручили Микаэлю Арнкилу. Свое десятилетие команда отметила сборником "Decade Of Decadence". На следующий год обновленный состав выпустил альбом с многозначительным названием "Absence Of War Does Not Mean Peace". Эта работа стала последней для Райморанты. 16 марта 2003 года гитарист умер от передозировки алкоголя. 25 марта Impaled Nazarene отыграли в честь Теему мемориальный концерт, а уже в апреле было объявлено, что новым лидер-гитаристом стал Туомио Лоухайо. Осенью вышел студийник "All That You Fear", после чего музыканты озадачились выпуском концертного альбома. Запись несколько раз откладывалась, но, в конце концов, задумка осуществилась, и в мае 2005-го "Death Comes In 26 Carefully Selected Pieces" лег на прилавки магазинов. Состав Impaled Nazarene оставался стабильным вплоть до июня 2007-го. Тогда Туомио, успевший записать все партии для диска "Manifest", ушел в отставку, а Impaled Nazarene выручил их давнишний приятель Томи Уллгрен. В ноябре 2010 года выходит очередная студийная работа от Impaled Nazarene - альбом "Road to the Octagon". До конца года музыканты дают концерты в Финляндии, Швеции, Италии и Польше, но в 2011-ом продолжают гастролировать с концертами не только по родной Скандинавии, но и по таким странам, как Словения, Греция, Турция, США, Германия и др. В начале 2012 года музыканты возвращаются с мини-туром по Финляндии. Скрыть...
Популярные аккорды Impaled Nazarene:
алфавиту | просмотрам | случайно
  • EADGBe tune
    
    intro
    |-------------|
    |-------------|
    |-------------|
    |--10-x--12---|
    |--10-x--12---|
    |--8--x--10---|
    
    
    riff1 
    -----------------------------------------------------------|
    -----------------------------------------------------------|
    -------------10-10-10-10-10--------------------------------|
    --7-7-7-7-7--10-10-10-10-10--10-10-10-10-10----------------|
    --7-7-7-7-7--8--8--8--8--8---10-10-10-10-10----------------|
    --5-5-5-5-5------------------8--8--8--8--8-----------------|
    
    then…
  • Riff 1
    I-------------------------------------------------------------------I
    I-------------------------------------------------------------------I
    I-------------------------------------------------------------------I
    I---------------------------------------------------5-5-7-7-9-99-99-I
    I-2-22-22-5-22-22--5-5-7-7-2-22-22--2-22-22-5-22-22-3-3-5-5-7-77-77-I
    I-0-00-00-3-00-00--3-3-5-5-0-00-00--0-00-00-3-00-00-----------------I…
  • Intro:
    E----------------------------------------------------------------|
    B----------------------------------------------------------------|
    G---0------3---6---3---0-----------------------------------------|
    D---0------3---6---3---0-----------------------------------------|
    A---2------1---4---1---2-----------------------------------------|
    E----------------------------------------------------------------|
    
    Verse:
    E-----------------------------------!-----------------------------|
    B-----------------------------------!-----------------------------|
    G------------------3---6---3--------!-----------------------------|
    D---2--------------3---6---3---2----!-----------------------------|
    A---00000000000----1---4---1---0----!-44444111114444411111--------|
    E-----------------------------------!-----------------------------|
    P.M.................
    
    Chorus:
    E----------------------------------------------------------------|
    B----------------------------------------------------------------|
    G---1010101010-5-10-9-55555-5/77-7-5/77-7-5/77--9-10-9-1---------|
    D---1010101010-5-10-9-55555-5/77-7-5/77-7-5/77--9-10-9-1---------|
    A---8-8-8-8-8--3-8--7-33333-3/55-5-3/55-5-3/55--7-8--7-3---------|
    E----------------------------------------------------------------|
    
    Bridge:(Nachdem…
  • Riff 1, tremolo picking,
    e|----------------------------------|
    B|----------------------------------|
    G|-5-5-4-5-6-6-5-5------------------|
    D|-3-3-3-3-3-3-3-3-6-6-5-6-5-5-5-5--|
    A|-----------------4-4-3-4-3-3-3-3--|
    E|----------------------------------|
    
    Riff…
  • E|-------------------------------------------------------------------------------|
    B|----------------------------12--10---------------------------------------------|
    G|----4--/--9-------------9-9-----------12--11-------------11----10-----11-9-----|
    D|------------------------------------------12------------12--------12-----------|
    A|-------------------------------------------------------------------------------|
    E|-------------------------------------------------------------------------------|
    
    E|-------------------------------------------------------------------------------|
    B|----------------12--10---------------------------------------------------------|
    G|--------9-9-----------12--11-------------11-----------------------9------------|
    D|------------------------------12-----------12--10--------10--12----------------|
    A|-------------------------------------------------------------------------------|
    E|-------------------------------------------------------------------------------|…
  • INTRO
    --------------------------------------------
    --------------------------------------------
    --------------------------------------------
    --------------------------------------------
    --101010999777555---------------------------
    --------------------------------------------
    
    FIRST…
  • p-Palm mute          v-Vibrato
    ...-Play many times
    /-Slide
    
    This Song Takes One Guitar Downtuned 1 Step
    00:00-00:35 RIFFA
    |------------------------------------------------------|
    |------------------------------------------------------|
    |------------------------------------------------------|
    |------------------------------------------------------|
    |-9-8-6-8-5--5...-6-8--5-5...--9-8-6-8--5-5...-6-8--5--|
    |-7-6-4-6-3--3...-4-6--3-3...--7-6-4-6--3-3...-4-6--3--|
    |
    |-------------------------------|-----|
    |-------------------------------|-----|
    |-------------------------------|-----|
    |-------------------------------|-----|
    |-5...--5p-5p-5p-5p-5p-5p--6-8--|-5p--|
    |-3...--3p-3p-3p-3p-3p-3p--4-6--|-3p--|
    
    00:35-01:01…
  • Intro,                      1,2,3  4th time
    e|-------------------------|------|----------------|
    B|-------------------------|------|----------------|
    G|-------------------------|------|----------------|
    D|-9---9-9---9-9-9-9-9-9-9-|-7--7-|-9-9-9-9-9-9----|
    A|-7---7-7---7-7-7-7-7-7-7-|-5--5-|-7-7-7-7-7-7----|
    E|-------------------------|------|----------------|
    pm…
  • |--------------------------------------------------------------------|
    |--------------------------------------------------------------------|
    |--------------------------------------------------------------------|
    |--------------------------------------------------------------------|
    |-9999999999999999-5555555555555555-7777777777777777-5555555555555555|
    |-7777777777777777-3333333333333333-5555555555555555-3333333333333333|
    
    This…
  • p-Palm mute          v-Vibrato
    ...-Play many times
    /-Slide
    
    This Song Takes One Guitar Downtuned 1 Step
    00:00-00:20 RIFFA
    |---------------|
    |---------------|
    |-7------10-9---|
    |-5-8-10--8-7---|
    |---6--8--------|
    |---------------|
    
    00:20-00:33…
  • Bass intro, play 4 times
    |-----------------------------|
    |-----------------------------|
    |-----------------------------|
    |--0--0--6--6--3-3-3--6--6----|
    
    
    These are the chords, listen the rhythm from the record.
    |------------------------------|
    |------------------------------|
    |------------------------------|
    |-2---8---5---8--7--8--5--8----|
    |-2---8---5---8--7--8--5--8----|
    |-0---6---3---6--5--6--3--6----|
    
    The…
  • Intro riff
    |-----------------------------------------|
    |-----------------------------------------|
    |-----------------------------------------|
    |--9-9-9-9-9-9-10-/-9-9-9-9-8-8-8-8-8-8--|
    |--7-7-7-7-7-7--8-/-7-7-7-7-6-6-6-6-6-6--|
    |--0-0-0-0-0-0-------0-0-0-0--------------|
    Play…
  • Intro/Verse
    |---------------------------------| 4x
    |---------------------------------|
    |---------------------------------|
    |-9-9-9-9-9-9-8-8-5-5-5-5-5-5-5-5-|
    |-9-9-9-9-9-9-8-8-5-5-5-5-5-5-5-5-|
    |-7-7-7-7-7-7-6-6-3-3-3-3-3-3-3-3-|…
  • p-Palm mute          v-Vibrato
    ...-Play many times
    /-Slide
    
    This Song Takes One Guitar Downtuned 1 step
    
    00:00-00:29 RIFFA
    |---------------------------|
    |---------------------------|
    |---------------------------|
    |------7...------2...-------|
    |-6...-5...-7...-4...-5...--|
    |-4...------5...------3...--|
    
    00:29-00:37…
  • Tablature Notation
    ------------------
    ..  - palm mute                 /  - slide up to
    \  - slide down to              ~  - vibrato
    h  - hammer on                  b  - bend
    p  - pull off                   Suffixes…
  • Riff 1
    E----------|----------------------|
    B----------|----------------------|
    G-2--------|----------------------|
    D----4-2-0-|-4-------2--4---------|
    A----------|-2--2222-0--2--2-2222-|
    E----------|----------------------|
    p.m…
  • Intro
    e|---------|
    B|---------|
    G|---------|
    D|---------|
    A|-2-2-2-2-|
    E|-0-0-0-0-|
    pm . . . .
    
    Riff 1, tremolo picking,
    e|---------------------------------|
    B|---------------------------------|
    G|---------------------------------|
    D|-9-1112119---11--9-12--119-109-7-|
    A|-7-9-109-7-129---7-10129-7-8-7-5-|
    E|-----------10--------10----------|
    
    Riff…
  • Riff 1
    E------------------------------------------------------------
    B------------------------------------------------------------
    G------------------------------------------------------------
    D-99999999-1010101010101010-99-77-99-77777777-1010-99999999--
    A-77777777-8-8-8-8-8-8-8-8--77-55-77-55555555-8-8--77777777--
    E------------------------------------------------------------
    
    Riff…
  • Tuning: Standard:  E-A-D-G-B-e
    
    | /   slide up
    | \   slide down
    | x   Muted note
    
         Riff (A).
    Count:  1. 2  3  4  5  6     2. 2  3  4  5  6     3. 2  3  4  5  6     4. 2  3  4  5  6  
       e||--------------------|--------------------|--------------------|--------------------|…
  • |------------------------------------|
    |------------------------------------|
    |------------------------------------|
    |------------------------------------|
    |------------------------------------|
    |-0000-6-5-0000-6-5-0000-6-5-3-3-3-3-|…
  • .  - palm mute           /  - slide up to
    \  - slide down to       ~  - vibrato
    h  - hammer on           b  - Bend
    p  - pull off            Suffixes for bend
    t  - tap                 f  - full bend    h - half bend
    ph…
  • Tune all strings down one-whole step: D A F G C D
    
    D:--------------|-------------------------------|
    A:--------------|-------------------------------|
    F:--------------|-12~-10~-8~-7~--12~-10~-8~-7~--|
    G:--------------|-------------------------------|
    C:--10--5\10-5--|-------------------------------|
    D:--8---3\8--3--|-------------------------------|
    
    D:-------------------------------------------------------|------|
    A:-------------------------------------------------------|------|
    F:-------------------------------------------------------|------|
    G:--5-----7-----------------5-----7-----10-----12--------|--4x--|
    C:--3-333-5-555-5-----8-----3-333-5-555-8--888-10-101010-|------|
    D:--------------3-333-6-666------------------------------|------|
    
    D:----------------------------------------------------|------|
    A:----------------------------------------------------|------|
    F:-----------------------------12--10-----------------|------|
    G:--11--11-12-13-12---11-12-13---------13--12--10--9--|--4x--|
    C:----------------------------------------------------|------|
    D:----------------------------------------------------|------|
    
    D:-----------------------|------|
    A:-----------------------|------|
    F:-----------------------|------|
    G:--5--------------------|--4x--|
    C:--3--6--5--------------|------|
    D:-----4--3--8-7-5-8-7-5-|------|
    
    D:--------------------------------------------------------------|-----|
    A:--------------------------------11~-8~--8~-6~--11~-8~--8~-6~--|--4--|
    F:--12~-10~-8~-7~--12~-10~-8~-7~--12~-10~-8~-7~--12~-10~-8~-7~--|--5--|
    G:--------------------------------------------------------------|-----|
    C:--------------------------------------------------------------|-----|
    D:--------------------------------------------------------------|-----|
    
    D:--------------------------|------|---------------------------|------|
    A:--------------------------|------|---------------------------|------|
    F:--------------------------|--4x--|---------------------------|--4x--|
    G:--------------------------|------|--3-----3-----3-----3---4--|------|
    C:-4-----4-----4-----4-2-5--|------|--1-111-1-111-1-111-1-6-2--|------|
    D:-2-222-2-222-2-222-2-0-3--|------|----------------------4----|------|…
  • p-Palm mute          v-Vibrato
    ...-Play many times
    /-Slide
    
    This Song Takes One Guitar Downtuned 1 Step
    00:00-00:11 INTRO
    |------------------------------------------|
    |------------------------------------------|
    |------------------------------------------|
    |-8-8-8-8-8-8-----------------8-8-8-8-8-8--|
    |-6-6-6-6-6-6--~PICK-SCRAPE~--6-6-6-6-6-6--|
    |------------------------------------------|
    
    00:11-00:28…
  • 1 st riff 
    |------------------------------------------------------|
    |------------------------------------------------------|
    |------------------------------------------------------|
    |------------------------------------------------------|
    |-777777-8-77-8-77-101010101010-888888-10-88-10-555555-|
    |------------------------------------------------------|…
  • Intro, tremolo picking
    e|----------------|---------------|---------------|----------------|
    B|----------------|---------------|---------------|----------------|
    G|----------------|---------------|---------------|----------------|
    D|----------------|---------------|---------------|----------------|
    A|-0-0-0-0-0-0-0-0|0-0-0-0-0-0-0-0|0-0-0-0-0-0-0-0|0-0-0-0-2-2-5-5-|
    E|----------------|---------------|---------------|--------0-0-3-3-|
    
    Riff…
Наверх