Аккорды «Imperial Teen»

Imperial Teen
Члены коллектива: * Родди Боттум (Гитара/Вокал) * Вилл Шварц (Гитара/Вокал) * Джоун Стеббинс (Бас-гитара/Бэк-вокал) * Линн Трулл (Ударные/Бэк-вокал) Группа известна тем, что в исполнении присутствует гармония парней/девушек и тем, что они играли до этого в других известных группах. Члены коллектива: * Родди Боттум (Гитара/Вокал) * Вилл Шварц (Гитара/Вокал) * Джоун Стеббинс (Бас-гитара/Бэк-вокал) * Линн Трулл (Ударные/Бэк-вокал) Группа известна тем, что в исполнении присутствует гармония парней/девушек и тем, что они играли до этого в других известных группах. Скрыть...
Популярные аккорды Imperial Teen:
алфавиту | просмотрам | случайно
  • Riff A
    
    G1: D           A         G
    G2:
    e|--2--2--3--2----------------|
    B|--------------3--5~---53~--|
    G|----------------------------|
    D|----------------------------|
    A|----------------------------|
    E|----------------------------|
    
    
    Riff…
  • [Em] [A] {Em] [A]
    
    [Em] Smells like [A] nothing
    [Em] Back to [A] Beatnik
    [Em] And I want [A] partner
    [Em] A big shot [A] rock star
    
    She said Yoo- [Em] Hoo
    I yoo hoo, I yoo hoo, [A] I yoo hoo,I yoo hoo 
    She said…
  • C             F            G
    I don't wanna give you the time that you give me
    C               F       G
    I don't want to go to a be in with you
    C           F           G
    Put me in a box and cut into my psyche
    C…
  • G1
    e|-----------------------|
    B|-----------------------|
    G|-----------------------|
    D|-----7-----7-----7-----|
    A|-----7-----7-----7-----|
    E|--0--5--0--5--0--5--0--|etc...
    
    G2
    e|------------------------------|
    B|--10--107--7--7/10--127--7--|
    G|------------------------------|
    D|------------------------------|
    A|------------------------------|
    E|------------------------------|play…
  • intro:
    e|-------------------|
    B|----2-0------------|
    G|--------1-2---1----|
    D|--2-------------2--| x 4 (on 4th don't play last note)
    A|-------------------|
    E|-------------------|
    chord progression
    E D A E
    E…
  • intro/verse
    e|------------------------------------------------------|
    B|------------------------------------------------------|
    G|------------------------------------------------------|
    D|------------------------------------------------------|
    A|------------------------------------------------------|
    E|--0--0--0--0--10--10--10--10--9--9--9--9--7--7--7--7--|
    
    Chorus:
    e|--------------------------------------------------------|
    B|--------------------------------------------------------|
    G|--------------------------------------------------------|
    D|--------------------------------------------------------|
    A|--------------------------------------------------------|
    E|--0--0--0--0--0--0--0--0--0--0--0-----------------------|…
  • [Intro]
    
    C...F...
    C...F...
    C...F...
    
    
    [Verse 1]
    
        C
    The first
    
           F
    Is the best
    
            C
    And the best
    
         F
    Is a curse
    
        C
    The taste
    
           F
    Of the last
    
       C
    Is sour
    
             F
    But it's blessed...yes, it's…
  • Intro:
    | - - - - - - - - - - - - - -|
    | - -5 - 4- - - - - - - - - -|   
    | - - - - - -2 -3 -4 - - - - | 
    | - - - - - - - - - - - - - -|
    | - - - - - - - - - - - - - -|
    | - - - - - - - - - - - - - -|
     
    Then is goes…
  • E        G#  A   E        G#  A   F#
    e|-------------------------------------------------|
    B|-------------------------------------------------|
    G|--1--1--1--5---6---1--1--1--5---6---3---3--3--3--|
    D|--2--2--2--6---7---2--2--2--6---7---4---4--4--4--|
    A|--2--2--2--6---7---2--2--2--6---7---4---4--4--4--|
    E|--0--0--0--4---5---0--0--0--4---5---2---2--2--2--|
    
    The…
  • One guitar plays variations of this riff below whilst another guitar
    plays a riff of just B and E along with the chords
    
       B         E           B           E
    e|---------|-----------|-----------|----------------------|
    B|---------|-----------|-----------|----------------------|
    G|---------|-----------|-----------|-----9-9-9--9-8-9-11--|
    D|---9-9-9-|-9---9-9-9-|-9---9-9-9-|-9--------------------|
    A|---------|-----------|-----------|----------------------|
    E|---------|-----------|-----------|----------------------|
    
    B…
Наверх