Аккорды «In Extremo»

In Extremo
Смесь средневековых мотивов и рока – вещь сегодня очень популярная и востребованная. Именно за счет такой вот смеси и стали известны музыканты, назвавшие свой коллектив In Extremo. Основана группа была в Берлине вокалистом Михаэлем Райном (Miсhael Rhein) no прозвищу "Последний единорог" (Das Lezte Einhorn). Иногда он зовёт себя на русский манер - Миша (Micha). Еще со времен школы будущим участникам группы настойчиво прививалась любовь к средневековой культуре: литературе, архитектуре и, конечно,… Читать полностью... Смесь средневековых мотивов и рока – вещь сегодня очень популярная и востребованная. Именно за счет такой вот смеси и стали известны музыканты, назвавшие свой коллектив In Extremo. Основана группа была в Берлине вокалистом Михаэлем Райном (Miсhael Rhein) no прозвищу "Последний единорог" (Das Lezte Einhorn). Иногда он зовёт себя на русский манер - Миша (Micha). Еще со времен школы будущим участникам группы настойчиво прививалась любовь к средневековой культуре: литературе, архитектуре и, конечно, музыке. Лидером и главным идеологом группы является Михаэль Райн. В далеком 1994 году состоялся концерт с участием Миши, Михаэля (в то время они играли вместе в группе Noah), а так же музыкантов из фолк-группы Corvus Сorax. Это был просто совместный джем, последствия которого зашли довольно далеко;). Именно благодаря смешению стилей музыкантам так понравилось их совместное творчество, что через год состоялся их второй концерт. Первой песней в музыкальной копилке группы стала "Ai Vis Lo Lop". Записана она была следующим составом: Айнхорн (вокал, арфа), "Thomas der Munzer" (гитара), "Die Lutter" (бас), Райнер Моргенштерн (барабаны, перкуссия). В скоре к составу прибавились: "Flex der Biegsame" (волынка, трубы, флейта) и "Dr. Pymonte" (волынка, флейта). Так как музыканты сами довольно экстремальные люди, с экстремальным подходом к музыке, то и название для своей группы они придумали соответствующее – In Extremo, что в переводе с латыни значит "на краю". Первым релизом группы стал акустический альбом “Golden”, который изначально задумывался как шутка. Так же готовился к выходу сингл "Der Galgen"(Виселица). Общественное признание группа получила после концерта в клубе Franzklub, на который ребят пригласил вокалист группы Knorkator Стумпен. Выступление музыкантов и их сценический имидж привлекли внимание журнала Rock hard. Прекрасным дополнением к шоу In Extremo стал прекрасный музыкант и шоумен Йеллоу Пфайфер (волынка, трубы, флейта). Надо сказать, что большинство участников группы вышло с улиц. Все они в той или иной степени были уличными музыкантами. Уличные концерты были, пожалуй, единственным возможным вариантом для безвестных музыкантов Восточной Германии того времени. Ближе к концу 1997 года на выступлении в Лейпциге группу заметил представитель лейбла Veilklang. Так, с новым менеджером, появился второй альбом группы – акустический "Hameln". Вскоре был подписан контракт с компанией Stars In The Dark. Следующий альбом "Weckt Die Toten!" (Будите мёртвых!) завоевал бешеную популярность! Вскоре группу перекупает лейбл Megalux/Mercury. Четвертым альбомом для группы становится "Die Verruckten Sind In Der Stadt", который был записан во время концертного выступления в июле 1998 года в городке Руннеберг. После концертного тура группа садится в студию для записи очередного релиза "Verehrt Und Angespien" (Благословен и проклят). Отличительной особенностью вышеназванных альбомов является тот факт, что, тексты песен большей частью являются памятниками средневековой литературы на латыни, древнегерманском, древнеисландском и старофранцузском языках. Музыканты лишь немного их обрабатывают. В 2001 году группа за три месяца записывает альбом "Sunder Ohne Zugel" (Необузданные грешники). Между записями альбомов группа активно гастролирует. Это становится поводом для издания еще одного живого альбома "Live". Этот альбом, к слову, вышел не только на CD, но и на DVD. Актуальным релизом для группы является альбом "7" (Sieben). Записан он был в 2003 году. В 2005 году группа выпускает новый альбом "Mein Rasend Herz" (Моё неистовое сердце), а в 2006 году новый концертный DVD "Raue Spree". В 2008 году In Extremo выпускают сингл "Frei Zu Sein",а за ним полноценный альбом "Sängerkrieg" За время своего существования группа успела поиграть на многих известных фестивалях: "Dynamo Open Air", "Roskilde", "Bizarre", "Rock am Ring", "Rock im Park", "Southside", "Hurricane" и т. д.,а также написать саундтрек к игре "Gothic" от немецких же разработчиков Группа по праву считается жемчужиной немецкого средневекового фолк-рока. Скрыть...
Популярные аккорды In Extremo:
алфавиту | просмотрам | случайно
  • Am        G            F      E
    Villemann gjekk seg te storan å,
         Am       G                   F     E
    Hei  fagraste linde lauvi  al  -  le
    G       F      E       C
    Der han ville  gullharpa slå
           G…
  • Am                   G
    Wir beide schaun uns an
                      F
    Ein Herz und eine Seele
                          G
    Ziehst mich in deinen Bann
                            Am
    Wir schreiens aus einer Kehle…
  • F# E
    Aluerst lebe ich mir werde
    Sit min suendig ouge siht
    Daz reine lant unde ouch die erde
    Der man so vil eren giht
    
      F#           A                       C#
    Es ist geschehen des ich ie bat
                  E…
  • Order:
    
    Intro
    Verse
    Pre-Chorus
    Chorus
    Verse
    Pre-Chorus
    Chorus  
    Interlude
    Verse
    Last Chorus (x2)
    
    
    
    Intro:
    
    Dm      C      A      Dm
    
    
    
    Verse:
    
              Dm             C
    Poc Vecem Ter Qui Mon Se…
  • verse (first part):
    
    e-------------------------------------------------------------------|
    b-------------------------------------------------------------------|
    g-----2-2------2---------4-4--------4------------repeat-------------|
    D--4------4-4---------2---------2-2---------------------------------|
    A-------------------------------------------------------------------|
    E-------------------------------------------------------------------|
    Viel…
  • Am            F          Dm         E
    Bittida en morgon innan solen upprann
    Am               G             C
    Innan foglarna började sjunga
    Am            F          Dm         E
    Bergatroliet friade till fager ungersven
    Am…
  • Intro: C B
    
    C B
    Hiemali tempore
    dum prata marcem frigore
    et aque congelescunt
    concurrunt in estuario
    qui regnant cum decio
    et postquam convalescunt
    
    In the first time just A and then
    A  ED G  DC  
    socius a socio
    ludus…
  • Припев:
                     Dm    
    Komm sснliеr die Augen glaube mir
    Dm           B      Am    Dm   
    Wir werden fliegen üвеrs Meer
    C                    Dm        
    Ich bin nach Deiner Liebe so krank
    B           Am…
  • Intro:
    
    D5, A5, C5, G5
    D5, A5, C5, G5
    
    
    
    Bb5
    Ich weiss, ich weiss wie Du heisst
    G5
    Ich weiss, ich weiss was Du treibst
    Bb5
    Kann nicht mehr schlafen, kann nichts mehr essen
    G5
    Ich bin von Deinem Anblick besessen
    Bb5
    Ich…
  • H   
    Es war einmal ein König 
    Em
    An Land und Dingen reich 
    H
    Der saß auf seinem Throne 
    Em
    Finster und bleich 
    Was er sinnt ist Schrecken 
    Was er blickt ist Wut 
    Was er spricht ist Geißel 
    Was er schreibt…
  • Tuning:Standard
    
    e|--------------------------------------------------------------------------|
    B|-----------------6--------------------------------------------------------|
    G|-------7-9----7-9-----9--------------------12--10-9-----------------------|
    D|-7---10----------------10-7-----7-10-9--5----------10-7-------------------|
    A|--------------------------------------------------------------------------|
    E|--------------------------------------------------------------------------|
    
    e|------------------------------|
    B|------------------------------|
    G|------------------------------|
    D|--7-10-9-10-10-9-9-10-10-9-7--|
    A|------------------------------|
    E|------------------------------|
    
    e|--------------------------------------------------------------------------|
    B|----------------------6---------------------------------------------------|
    G|------------7-9----7-9-----9--------------------12--10-9------------------|
    D|-10-9-7---10----------------10-7-----7-10-9--5----------10-7--------------|
    A|--------------------------------------------------------------------------|
    E|--------------------------------------------------------------------------|
    
    e|------------------------------|
    B|------------------------------|
    G|------------------------------|
    D|--7-10-9-10-10-9-9-10-10-9-7--|
    A|------------------------------|
    E|------------------------------|…
  • First the music:
    Сначала музыка:
    
    This pattern (acoustic with nylon strings) uses in intro & first two lines in verses
    Эта партия (акустика с нейлоновыми струнами) используется во вступлении и первых двух 
    строках куплета…
  • Intro = 1 Verse
    
    Oh elendes und gar schmerzvolles Leben
    Krieg haben wir
    Sterben und Hungersnot
    Kälte, Hitze höhlt uns aus
    Bei Tag und Nacht
    Flöhe, Milben, Ratten
    Zerren an unseren Leibern
    Deren Leben gar kurz ist
    
    
    
    Verse…
  • Tuning: Standard
    
    
    Intro+Verse
        Dm  Dsus4  Dm  Dsus4  C        C
    e|-----5---------5---------3--------3-------|
    B|--------8---------8---------5--------5----|
    G|---7---7-----7---7-----5---5----5---5-----|
    D|--7-7-------7-7-------5-5------5-5--------|
    A|-5---------5---------3--------3-----------|
    E|------------------------------------------|
    
    alternatively:…
  • E||--5--5--5--3--5--7--8----|--5--7--8--10--12--10--8----|
    B||-------------------------|----------------------------|
    G||-------------------------|----------------------------|
    D||-------------------------|----------------------------|
    A||-------------------------|----------------------------|
    E||-------------------------|----------------------------|
    
    E||--5--5--5--3--5--7--8----|--5---8--7--5--3--5--5---|
    B||-------------------------|-------------------------|
    G||-------------------------|-------------------------|
    D||-------------------------|-------------------------|
    A||-------------------------|-------------------------|
    E||-------------------------|-------------------------|
    
    E||--12--14--15--14--12--14--15----|--7--7--7--5--3--5--7----|
    B||--------------------------------|-------------------------|
    G||--------------------------------|-------------------------|
    D||--------------------------------|-------------------------|
    A||--------------------------------|-------------------------|
    E||--------------------------------|-------------------------|
    
    E||--12--14--15--14--17-15--14--15---|--7--7--7--5--3--5--5----|
    B||----------------------------------|-------------------------|
    G||----------------------------------|-------------------------|
    D||----------------------------------|-------------------------|
    A||----------------------------------|-------------------------|
    E||----------------------------------|-------------------------|
    
    E||--5----12----10-8--10--12---|--5----12----10-8--7--5---|
    B||----------------------------|--------------------------|
    G||----------------------------|--------------------------|
    D||----------------------------|--------------------------|
    A||----------------------------|--------------------------|
    E||----------------------------|--------------------------|…
  • Playing on acoustic with nylon strings.
    Играется на акустике с нейлоновыми струнами.
    
    This is the main solo riff. Second guitar play arpeggios (I haven´t tab it yet)
    Это партия соло-гитары. Вторая гитара играет арпеджио…
  • Tuning: standard tuning
    
    e|------------------------------------------------|
    B|------------------------------------------------|
    G|------------------------------------------------|
    D|------------------------------------------------|…
  • Em
    Nacht für Nacht der Sternenbauer
       C
    Wirft seine Saat auf alle Trauer
       G
    Wissend um die rechte Zeit
       Bm
    Weil Licht folgt auf die Dunkelheit
    
       Em
    Sät den Glanz in die Nacht
       C
    Weiß, dass davon ein…
Наверх