Аккорды «In This Moment»

In This Moment
In This Moment - американская metalcore группа (Лос-Анджелес, Калифорния), сформированная в 2005. Их первый альбом Beautiful Tragedy издан 20 марта 2007 года на студии Century Media Records. Звучание группы выпадает на мелодичную сторону металкора, с вокалом Maria Brink, использующей два различных стиля исполнения - скрим и чистое, эмоциональное пение. В 2005, вокалистка Maria Brink и гитарист Chris Howorth познакомились через общих друзей. После знакомства, они нашли общие интересы и начали… Читать полностью... In This Moment - американская metalcore группа (Лос-Анджелес, Калифорния), сформированная в 2005. Их первый альбом Beautiful Tragedy издан 20 марта 2007 года на студии Century Media Records. Звучание группы выпадает на мелодичную сторону металкора, с вокалом Maria Brink, использующей два различных стиля исполнения - скрим и чистое, эмоциональное пение. В 2005, вокалистка Maria Brink и гитарист Chris Howorth познакомились через общих друзей. После знакомства, они нашли общие интересы и начали вместе писать музыку. Вскоре к ним присоединился барабанщик Jeff Fabb из Лос-Анджелесса. К середине 2005, в состав группы входили Brink, Howorth, Fabb, гитарист Blake Bunzell, и басист Josh Newell. Группа записала несколько песен и выложила их на MySpace, где они вызвали большой интерес интернет-сообщества. Летом 2005, Newell ушел из группы для того чтобы сосредоточиться на собственном проекте - Ketaset. Близкий друг группы, Pascual Romero принял на себя обязательства бас-гитариста на некоторое время, прежде чем группа нашла Jessy Landry. К концу года у In This Moment была довольно большая посещаемость в Интернете и они устроили самостоятельные гастроли, вызвав интерес у Century Media Records. 30 сентября 2008 года группа выпускает свой второй альбом The Dream. 13 июля 2010 года - третий альбом - "A Star-Crossed Wasteland" Участники группы: Maria Brink - Вокал Chris Howorth - Лидер-гитара Blake Bunzel - Гитара Jesse Landry - Бас Jeff Fabb - Барабаны Дискография: 2007 - Beautiful Tragedy 2007 - Prayers EP 2008 - The Dream 2010 - A Star-Crossed Wasteland 2012 - Blood Сайт группы: http://www.inthismoment.com/ Скрыть...
Популярные аккорды In This Moment:
алфавиту | просмотрам | случайно
  • Am
    I don't need you to save me
    F
     I don't need you to cure me
    E
     I don't need you
     
     And your antidote
           Dm  E
     For I am my disease
    
    
    Am
     I don't need you to free me
    F
     I don't need you to help me
    E…
  • *Capo 5th fret* 
    Chords:
    Em7 : 022033
    Dsus4 : xx0233
    C : x32033
    D :xx0232
    G : 320033
    Am : x02210
    B#/Am : x22210
    C : x32010
    4/4 time. Strumming pattern is quite simple if you play along.
    
    Intro: Em7 , Dsus4 ,…
  • F#m
    I can be your whore!
              D
    I am the dirt you created
    A               E
    I am your sinner
        C#m         F#m
    I am your whore
                        D
    But let me tell you something baby
        A           E…
  • Intro:[Rhythm]
    e[-------------------------------------------------------------------------]
    b[-------------------------------------------------------------------------]
    g[-----9-----9---------7-----5--4p3----------------------------------------]
    d[---7-----7-----7---5-----3-----------------------------------------------]
    a[-7-----7-----7---5-----3-------------------------------------------------]
    E[-------------------------------------------------------------------------]
    
    Lead…
  • Bbm                     Ab
    I hate you for the sacrifices you made for me
    B                       Bbm
    I hate you for every time you ever bled for me
    Bbm                     Ab
    I hate you for the way you smile when you…
  • Guitar 1 Rhythmic (A  E  A  D  F# B  )
    Guitar 2 Lead     (A  E  A  D  F# B  )
    Guitar 3 Acoustic (C# F# B  E  G# C# )
    
    Tab Guide...
    ===================================================================
    (end of measures)
    
    ===================================================================
    ===================================================================
    (end…
  • INTRO
    A   Bb C    Bb A    Bb C    Bb
    
    
    A               Bb   C      
    Mirror mirror on the wall
                        Bb    A
    Who's the fairest of them all?
                    Bb      C     Bb
    Tell me I'm the perfect queen
    
    A…
  • Tuning:standered
    Into (first 3)
    e|-------------------------------------------------------------------------|
    B|--8p-7---8p-7---8p-7---8p-7---8p-7---------------------------------------|
    G|-------7------7------7------7------7-------------------------------------|
    D|-------------------------------------------------------------------------|
    A|-------------------------------------------------------------------------|
    E|-------------------------------------------------------------------------|
    x2
    e|-------------------------------------------------------------------------|
    B|--10p-7---10p-7---10p-7---10p-7---10p------------------------------------|
    G|--------7-------7-------7------7------7----------------------------------|
    D|-------------------------------------------------------------------------|
    A|-------------------------------------------------------------------------|
    E|-------------------------------------------------------------------------|
    
    e|-------------------------------------------------------------------------|
    B|--10p-8---10p-8---10p-8---10p-8---10p-8----------------------------------|
    G|--------7-------7-------7-------7-------7--------------------------------|
    D|-------------------------------------------------------------------------|
    A|-------------------------------------------------------------------------|
    E|-------------------------------------------------------------------------|
    Chorus
    e|-3-3-3-3-3-3---------------2-2-2-2-2-2-2--3-3-3-3-3-3--------------------|
    B|-3-3-3-5-5-5---------------3-3-3-3-3-3-3--3-3-3-3-3-3--------------------|
    G|-5-5-5-5-5-5---------------2-2-2-2-2-2-2--2-2-2-2-2-2--------------------|
    D|-5-5-3-3-3-3--2-2-2-2-2-2--0-0-0-0-0-0-0--0-0-0-0-0-0--------------------|
    A|-3-3-3-3-3-3--2-2-2-2-2-2--0-0-0-0-0-0-0--0-0-0-0-0-0--------------------|
    E|--------------0-0-0-0-0-0------------------------------------------------|
    Verse
    e|------------3-2----------------------------------------------------------|
    B|------------3-3----------------------------------------------------------|
    G|------------2-2-------4-2h-4p-2p-0-------4-2h-4p-2p-0--------------------|
    D|--2-2--2-2--0-0--2-2----------------2-2----------------------------------|
    A|--2-2--2-2--x-0--2-2----------------2-2----------------------------------|
    E|--o-o--0-0--3----0-0----------------0-0----------------------------------|
    
    e|-3-2---------------------------------------------------------------------|
    B|-3-3---------------------------------------------------------------------|
    G|-2-2---------------------------------------------------------------------|
    D|-0-0--2-2--------2-2-----------------------------------------------------|
    A|-x-0--2-2---4-2--2-2---4-2-----------------------------------------------|
    E|-3----0-0--0-----0-0--0--------------------------------------------------|
    
    e|-3-2----------------------------------------3-2--------------------------|
    B|-3-3----------------------------------------3-3--------------------------|
    G|-2-2-------4-2h-4p-2p-0-------4-2h-4p-2p-0--2-2--------------------------|
    D|-0-0--2-2----------------2-2----------------2-0--------------------------|
    A|-x-0--2-2----------------2-2----------------x-0--------------------------|
    E|-3----0-0----------------0-0----------------3----------------------------|
    Solo
    e|-------------------------------------------------------------------------|
    B|-------------------------------------------------------------------------|
    G|-------------------------------------------------------------------------|
    D|-------------------------------------------------------------------------|
    A|--5-2-3-2-2-3------------------------------------------------------------|
    E|-x-----------------------------------------------------------------------|
    x8…
  • Intro
    A#m  C#  F#  C#
    
    
    A#m
      It's 2:30  a.m.
    C#
     I slowly come awake
    F#                                    C#
     And I know that something's just not right
    A#m
     I walk slowly to the door
    C#
     and feel the heat…
  • Bm
    I don’t know how I got here
    G                F#
    But we cannot get out
    Bm
    I’m surrounded by strangers
            G              F#
    As the music starts to pound
              Bm
    I see the bodies slowly swayin’
    G…
  • Drop A tuning on 7 string.
    
    e|---------------------------------|------------------------------|
    B|---------------------------------|------------------------------|
    G|---------------------------------|------------------------------|
    D|-------------------------3-------|------------------------------|
    A|-------------------------1-------|------------------------------|
    E|-0---0---3---0---0---0---1---0---|-0---0---3---0---0---0--------|
    A|-0---0---3---0---0---0---1---0---|-0---0---3---0---0---0---6----|
    
    E|---------------------------------|
    B|---------------------------------|
    G|---------------------------------|
    D|-------------------------3-------|
    A|-------------------------1-------|
    E|-0---0---3---0---0---0---1---0---|
    A|-0---0---3---0---0---0---1---0---|
    
    
    e|-----------------------------------|--------|
    B|-----------------------------------|--------|
    G|-----------------------------------|--------|
    D|-----------------------------------|--------|
    A|-----------------------------------|--------|
    E|-0---0---3---0---0---0-------------|--------|
    A|-0---0---3---0---0---0---6--5--3---|--------|…
  • C#m                     Abm        F#
    Come a little bit closer before we begin
    C#m
    Lemme tell you how I want it
    Abm                F#
    And exactly what I need
    C#m
    I'm here for one drug
    Abm                   F#
    I'm…
  • Gtr.1 only 0:00-0:09
    |---------------------------------------------------------------------|
    |---------------------------------------------------------------------|
    |---------------------------------------------------------------------|
    |---------------------------------------------------------------------|
    |--5-----3-----6-----5-----6p5-----5-----3-----6-----5-----3333-1111--|
    |----0-0---0-0---0-0---0-0-----0-0---0-0---0-0---0-0---0-0-3333-1111--|…
  • Tuning: Standard A (7 String)
    
    The band uses standard B (7 String) but like i was tuned a whole step down and i was too 
    to tune it up lol so yeah. sorry. haha.
    
    Intro
    
    D|--------------------------------------------------------------|
    A|--------------------------------------------------------------|
    F|----------------------------------------------13--------------|
    C|-12h14-14-14-12h14-14-14-12h14-14-14-16-14-------14-16--------|
    G|-------------------------------------------17-----------------|
    D|--------------------------------------------------------------|
    A|--------------------------------------------------------------|
    
    D|--------------------------------------------------------------|
    A|--------------------------------------------------------------|
    F|-------------------------------------16-14--------------------|
    C|-12h14-14-14-12h14-14-14-12h14-14-14-------17-14-16-17--------|
    G|--------------------------------------------------------------|
    D|--------------------------------------------------------------|
    A|--------------------------------------------------------------|
    
    Verse
    
    D|--------------------------------------------------------------|
    A|--------------------------------------------------------------|
    F|--------------------------------------------------------------|
    C|-2-10-2-10-7-9-7-9--------------------------------------------|
    G|-2-10-2-10-7-9-7-9--------------------------------------------|
    D|-0--8-0—8--5-7-5-7--------------------------------------------|
    A|--------------------------------------------------------------|
    
    Chorus
    
    D|--------------------------------------------------------------|
    A|--------------------------------------------------------------|
    F|--------------------------------------------------------------|
    C|-2-5-7-10-----------------------------------------------------|
    G|-2-5-7-10-----------------------------------------------------|
    D|-0-3-5--8-----------------------------------------------------|
    A|--------------------------------------------------------------|
    
    Post-Chorus
    
    D|--------------------------------------------------------------|
    A|--------------------------------------------------------------|
    F|---6---6---7--------------------------------------------------|
    C|-4-6-4-6-5-7--------------------------------------------------|
    G|-4-4-4-4-5-5--------------------------------------------------|
    D|-2---2---3----------------------------------------------------|
    A|--------------------------------------------------------------|
    
    Pre-Solo
    
    D|--------------------------------------------------------------|
    A|--------------------------------------------------------------|
    F|--------------------------------------------------------------|
    C|-2-10-7-9-----------------------------------------------------|
    G|-2-10-7-9-----------------------------------------------------|
    D|-0--8-5-7-----------------------------------------------------|
    A|--------------------------------------------------------------|
    
    Solo
    
    D|--------------------------------------------------------------|
    A|--------------------------------------------------------------|
    F|-18-16--------------------------------------------------------|
    C|-------19-18--18-21-19-18-21-19-19-18-14-11-------------------|
    G|--------------------------------------------------------------|
    D|--------------------------------------------------------------|
    A|--------------------------------------------------------------|
    
    D|-------------19-17-16-19-17----16-----------------------------|
    A|----------------------------17----17--------------------------|
    F|-18-16-------------------------------18-----------------------|
    C|-------19-18--------------------------------------------------|
    G|--------------------------------------------------------------|
    D|--------------------------------------------------------------|
    A|--------------------------------------------------------------|
    
    D|----------16-17-16----19-17-----------------------------------|
    A|----17-19----------19-------20----15-17-19-15-17-19-19-17-15--|
    F|-18-----------------------------------------------------------|
    C|--------------------------------------------------------------|
    G|--------------------------------------------------------------|
    D|--------------------------------------------------------------|
    A|--------------------------------------------------------------|
    
    D|--------------------------------------------------------------|
    A|-------------------------(17-19-20--x11)----------------------|
    F|-19-19*-------------------------------------------------------|
    C|--------------------------------------------------------------|
    G|--------------------------------------------------------------|
    D|--------------------------------------------------------------|
    A|--------------------------------------------------------------|
    
    D|-20-20-18-17--------------------------------------------------|
    A|-------------20-20-18-17--------------------------------------|
    F|-------------------------20-20-18-17h18p17-16-----------------|
    C|--------------------------------------------------------------|
    G|--------------------------------------------------------------|
    D|--------------------------------------------------------------|
    A|--------------------------------------------------------------|
    
    Order:
    
    Intro		X2
    Verse		X1
    Chorus		X2
    Intro		X1
    Verse		X1
    Chorus		X2
    Intro		X1…
  • A   C7M     F(b5)    D  A
    
             C7M         F(b5)     D                    A
    Red lips, a sinister tongue (I'll taste you until I cant)
            C7M         F(b5)     D                    A
    Our trip has just begun…
  • L
    ---------------------------------------------|
    ---------------------------------------------|
    ---------------------------------------------|
    --------------2------------------------------|
    -------2--2----------------------------------|
    -0--0----------------------------------------|
    ---------------------------------------------|
    
    R
    ---------------------------------------------|
    ---------------------------------------------|
    ---------------------------------------------|
    --------------9--------------12--------------|
    -10-9----9-10---10-9----9-10----10-9----9----|
    ------12-------------12--------------12------|
    ---------------------------------------------|
    
    L
    --------------------------------------------|
    --------------------------------------------|
    --------------------------------------------|
    --------------------------------------------|
    ------------5-------------------------------|
    -------5-5----------------------------------|
    -3--3---------------------------------------|
    
    R
    ---------------------------------------------|
    ---------------------------------------------|
    ---------------------------------------------|
    --------------9--------------12--------------|
    -10-9----9-10---10-9----9-10----10-9----9----|
    ------12-------------12--------------12------|
    ---------------------------------------------|
    
    L
    --------------------------------------------|
    --------------------------------------------|
    --------------------------------------------|
    --------------------------------------------|
    --------------5-----------------------------|
    --------3--3--------------------------------|
    -1--1---------------------------------------|
    
    R
    ---------------------------------------------|
    ---------------------------------------------|
    ---------------------------------------------|
    --------------9--------------12--------------|
    -10-9----9-10---10-9----9-10----10-9----9----|
    ------12-------------12--------------12------|
    ---------------------------------------------|
    
    L
    --------------------------------------------|
    --------------------------------------------|
    --------------------------------------------|
    --------------------------------------------|
    -------------7------------------------------|
    -------5--5---------------------------------|
    -3--3---------------------------------------|
    
    R
    -------------------------------------------|
    -------------------------------------------|
    -------------------------------------------|
    --------------9----------------------------|
    -10-9----9-10---10-9----9-----12-10-9---9--|
    ------12-------------12---12---------10----|
    -------------------------------------------|
    
    
    
    
    0:11
    
    
    L
    ----------------------------------------------------------------|
    ----------------------------------------------------------------|
    ----------------------------------------------------------------|
    ----------------------------------------------------------------|
    -5-----------5-------------------5-----------5---------------5--|
    ------------------------------^---------------------------------|
    ---000-0-0-0---000-0-0-0-0-0-3-0---000-0-0-0---000-0-0-0-3-3----|…
  • Intro: Cm
    
    Verse 1:
    Cm
    The dust is clearing
           D#          A#
    And the desert is calm
         Cm
    The skies are all quiet
         D#            A#
    And I can't make a sound
        G#      A#      Cm
    And I just wait for…
  • C#|---------------------------------------------------------------|
    G#|---------------------------------------------------------------|
    E |--------------------------------14-14--------------------------|
    B |---------------------------------------------------------------|
    F#|--0-7-8-0-7-7-7-7-0-10-10-10-12-12-12-5-5-5-5-5-5-5-5-3-3-3-3--|
    B…
  • Intro
    Ab  E
    
    Verse
    Ab  E  Ab  E  F#
    
    Pre Chorus
    E  F#
    
    Chorus
    B Bb Ab F# E F#
    
    Bridge
    Ab F# E
Наверх