Аккорды «Inme»

Inme
Трое участников британской группы InMe всегда чувствовали себя единым целым, настолько нераздельным, что единственно возможным названием стало для них придуманное слово InMe - "ВоМне", а не "ВНас" или какое-нибудь другое множественное число. Из множественного у них пока только амбиции и перспективы, из единственного, но уже неотъемлемого, - дебютный альбом, который вызвал у многих критиков поток красноречия и заставил не скупиться на щедрые авансы. Риторический оборот типа "самая значительная группа,… Читать полностью... Трое участников британской группы InMe всегда чувствовали себя единым целым, настолько нераздельным, что единственно возможным названием стало для них придуманное слово InMe - "ВоМне", а не "ВНас" или какое-нибудь другое множественное число. Из множественного у них пока только амбиции и перспективы, из единственного, но уже неотъемлемого, - дебютный альбом, который вызвал у многих критиков поток красноречия и заставил не скупиться на щедрые авансы. Риторический оборот типа "самая значительная группа, которая появилась в Великобритании за последние десять лет" - это только один из образцов журналистского красноречия. Инициаторами всех этих словесных щедрот стали трое обитателей тихого английского городка Харольд Вуд в графстве Эссекс. Номер первый - лид-вокалист и гитарист Дэвид Александер Джон Макферсон (David Alexander John McPherson), он же просто Дейв, который родился 3 октября 1982 года. Номер второй - бас-гитарист и бэк-вокалист Джозеф Эдвард Морган (Joseph Edward Morgan) или Джо; он всего на две недели младше Дейва. И номер третий - барабанщик Саймон Джон Тейлор (Simon John Taylor); родился 21 декабря 1983 года. Согласно официальной предыстории группы, все трое участников знают друг друга много-много лет, и это не преувеличение, несмотря на их юный возраст. Дейв и Джо познакомились еще в дошкольном заведении, когда им было всего по четыре года. Они вместе росли, взрослели, обменивались впечатлениями, научились понимать друг друга с полуслова. Им было по 11 лет, когда их осенила гениальная идея создать собственную группу. Было это в 1994 году. Собственно, весь коллектив, носивший название Drowned, ограничивался на тот момент двумя участниками. Если для Джо музыка была скорее развлечением, то для Дейва она стала спасением от не такой уж радужной тинейджерской жизни. Он не любит откровенничать на эту тему, но не отрицает, что стрессов в школьные годы у него было предостаточно. Петь и играть на гитаре он учился самостоятельно, постепенно втянув и Джо. Именно этот длинный подготовительный период, занявший целое десятилетие, многие критики считают главной причиной такого убедительного дебюта. На первых порах дуэт Drowned не строил никаких далеко идущих планов и тихо-мирно учился играть, осваивая хитовый репертуар известных рок-групп. Но по мере взросления музыкантов отношение к проекту коренным образом менялось. Серьезным шагом вперед стало появление барабанщика Саймона Тейлора, большого поклонника Led Zeppelin и Radiohead, уже имеющего опыт игры на ударных. В отличие от своих друзей по группе, Саймон вырос в музыкальной семье. Его отец был профессиональным барабанщиком, и в детстве мальчик по много часов наблюдал за Тейлором старшим во время репетиций и концертов. Кроме того, с подачи отца он обзавелся довольно приличной ударной установкой. Вторым важным этапом в становлении группы стало участие в разных конкурсах молодых талантов с традиционным названием "Битва команд". Дейв, Джо и Саймон ни разу не выигрывали, но были близки к победе, и это помогло им более реально оценить свои силы. К 2000-му году команда, уже переименованная в InMe, накопила достаточно собственных песен (авторства Макферсона и Моргана), чтобы предлагать свои услуги местным клубам. Со временем начались пробные вылазки в окрестности Лондона. Однажды InMe играли в первом отделении концерта, главной "фишкой" которого была группа Hope and Anchor. Именно ее собирались послушать менеджеры заинтересованного рекорд-лейбла Victor Co. По техническим причинам, начало концерта отложили, и гости успели захватить часть выступления InMe. Так у молодой команды появился рекординговый контракт и возможность заняться студийной работой. Благодаря прекрасным отношениям в группе, полному взаимопониманию и готовности к серьезной работе, за два месяца, проведенных в Лос-Анджелесе, команда завершила основную часть работы над дебютным альбомом. Первоначальную разведку слушательских симпатий провели с помощью трех синглов, самым популярным из которых стал трек "Crushed Like Fruit". В начале 2003 года InMe представили полноформатный дебют "Overgrown Eden", опубликованный сначала в Японии, а затем в Великобритании и в других странах Европы. "Это трио предназначено для великих свершений", - написал рецензент журнала "Rock Sound" о подборке крепких, не всегда веселых, полных юношеского пессимизма песен, которые лавировали между хард-роком и инди-роком. Обозреватели престижных британских изданий "New Musical Express" и "Q" высоко оценили саунд InMe, особенно отмечая удивительную человеческую и музыкальную зрелость этого коллектива, хотя в момент записи альбома ребятам было по 18-20 лет. Еще более энергичными поклонниками дебютантов оказались читатели журнала "Kerrang!", благодаря которым команда попала в число номинантов на звание лучшей новой группы. Любопытно, что одновременно нашлись издания, номинировавшие альбом "Overgrown Eden" на звание худшего альбома. Первый хэдлайнерский тур английского трио, который перерос в мировое турне, проходил в отличной компании: среди приглашенных музыкантов и технического персонала подобралось много хороших знакомых InMe. Дебютанты отдали дань меломанам, живущим за тридевять земель, в Японии и Австралии, а также подготовке нового материала. Во время последних выступлений весной 2005 года они уже знакомили слушателей с новыми песнями. Следующая студийная работа обещает быть не в пример более оптимистичной - с подростковым отчаянием и тоской они расквитались на первом альбоме... Скрыть...
Популярные аккорды Inme:
алфавиту | просмотрам | случайно
  • Intro:
    
    E|--------------------------------------------------
    B|--------------------------------------------------
    G|--------------------------------------------------
    D|--------------------------------------------------…
  • Instrument - Bass
    Tuning - Drop D (DADG)
    
    
    Intro
    
    G -------------------|----------------|
    D ------1h2-1h2-1h2--|----------------|
    A --5-0-------------5|----------------|
    D 3------------------|---3-5-2---1h2p1|
    
    Verse
    
    
    G…
  • e|---------------------------------------------------------------------------|
    B|--------------15------------------------------19---------------------------|
    G|------14----------14------14----------18----------18------18---------------|
    D|--12------12----------12----------16------16----------16-------------------|
    A|---------------------------------------------------------------------------|
    E|---------------------------------------------------------------------------|
    
    e|---------------------------------------------------------------------------|
    B|--------------15------------------------10---------------------------------|
    G|-----14-----------14----14-------9----------9-----9------------------------|
    D|--12----12-----------12-------7-----7----------7-----7---------------------|
    A|---------------------------------------------------------------------------|
    E|---------------------------------------------------------------------------|…
  • Intro:
    B*   A*  G
    
    7    5   A
    x    x   s
    7    7
    7    7   I
    7    7   s
    0    0
    
    1 Upstroke on B* then into normal strumming. Its Major Barre chords on the 5th string 
    6th string routes.
    
    Strum B*
    
             A*…
  • Tuning: Standard
    
    
    e|-14-----14-----12-----12----12-----10-----10-----9-----9-----9-------------|
    B|----0------0------0-----0------0------0------0-----0-----0-----0-----------|
    G|------0------0------0-----0------0------0------0-----0-----0-----0---------|
    D|---------------------------------------------------------------------------|
    A|---------------------------------------------------------------------------|
    E|---------------------------------------------------------------------------|
    
    e|-14-----15-----12-----12-----12-----14--10-----12-----9-----9-----9--------|
    B|----0------0------0------0------0----------0------0-----0-----0-----0------|
    G|------0------0------0------0------0----------0------0-----0-----0-----0----|
    D|---------------------------------------------------------------------------|
    A|---------------------------------------------------------------------------|
    E|---------------------------------------------------------------------------|
    
    e|-------9----------7------------------5---------4---------------------------|
    B|---7-----7----7-----7---7---7----7-----7---7-----7---7---7-----------------|
    G|-7---7------7---7-----7---7----7---7-----7---7-----7---7-------------------|
    D|---------------------------------------------------------------------------|
    A|---------------------------------------------------------------------------|
    E|---------------------------------------------------------------------------|
    
    e|-------7---------5-------------------3---------2---------------------------|
    B|---0-----0---0-----0---0---0-----0-----0---0-----0---0---0-----------------|
    G|-5---5-----5---5-----5---5-----5---5-----5---5-----5---5-------------------|
    D|---------------------------------------------------------------------------|
    A|---------------------------------------------------------------------------|
    E|---------------------------------------------------------------------------|
    
    e|-------5---------2-----2h3p2----------5---------2---3----------------------|
    B|---3-----3---3-----3---------3----3-----3---3-----3---0--------------------|
    G|-0---0-----0---0-----0----------0---0-----0---0---------0------------------|
    D|---------------------------------------------------------------------------|
    A|---------------------------------------------------------------------------|
    E|---------------------------------------------------------------------------|
    
    e|-------7---------5-------------------7---------8---------------------------|
    B|---0-----0---0-----0---0---0-----0-----0---0-----0---0---0-----------------|
    G|-5---5-----5---5-----5---5-----8---8-----8---8-----8---8-------------------|
    D|---------------------------------------------------------------------------|
    A|---------------------------------------------------------------------------|
    E|---------------------------------------------------------------------------|
    
    e|-----------0-----------------------0----------------0------0----|let…
  • Intro
    E-------------------------------------------------7*-------
    B-3*---8/6*---7-8-10-11-11-11-11--13-15--------------7*----
    G--------------------------------------14-15-14------------
    D----------------------------------------------------------
    A----------------------------------------------------------
    D----------------------------------------------------------
    
    Verse
    E-----------------------------------------------
    B-3*---8/6*--7-8-10-11-11-11-11--13-15----------
    G-------------------------------------14-15-14--…
  • Intro
    E|-----|
    B|-----|
    G|-----|
    D|--2--|
    A|--2--|
    D|--2--|
    
    Bass line before guitar comes in
    E|-------------------------|
    B|-------------------------|
    G|-------------------------|
    D|-------------------------|
    A|-------------------------|
    D|--7-7-10-8-8-7-7-7-8-10--|
    
    Main…
  • C  C/B      F      C   C/B     F         
    3rd Jonquil... lucky, empty pill, torn-out page
    C  C/B   Bb    Am     G#
    This connection is the friction we awaited
         C   C/B     F
    Electric, broken ghost, she feels sick
    C…
  • Tuning -  Drop D
    
    Intro
    |--------------------------------------------|
    |---------------------------------12~--------|
    |--------------------------------------------|
    |---11-11-11/12~-----11-11-11/12~------------|
    |--------------------------------------------|
    |--------------------------------------------|
    
    |--------------------------------------------|
    |---------------------------------12~--------|
    |--------------------------------------------|
    |---11-11-11/12~-----11-11-11/12~------------|
    |--------------------------------------------|
    |--------------------------------------------|
    
    |--------------------------------------------|
    |---------------------------------12~--------|
    |--------------------------------------------|
    |---11-11-11/12~-----11-11-11/12~------------|
    |--------------------------------------------|
    |--------------------------------------------|
    
    |--------------------------------------------|
    |---------------------------------12~--------|
    |--------------------------------------------|
    |---11-11-11/12~-----11-11-11/12~------------|
    |--------------------------------------------|
    |--------------------------------------------|
    Distortion
    
    |--------------------------------------------|
    |---------------------------------12~--------|
    |--------------------------------------------|
    |---11-11-11/12~-----11-11-11/12~------------|
    |--------------------------------------------|
    |--------------------------------------------|
    
    |--------------------------------------------|
    |---------------------------------12~bup-----|
    |--------------------------------------------|
    |---11-11-11/12~-----11-11-11/12~------------|
    |--------------------------------------------|
    |--------------------------------------------|
    Verse
    |--------------------------------------------|
    |--------------------------------------------|
    |--------------------------------------------|
    |---55-5-22-555-5444-4-22--------------------|
    |---55-5-22-555-5444-4-22--------------------|
    |---55-5-22-555-5444-4-22--------------------|
    
    |--------------------------------------------|
    |--------------------------------------------|
    |--------------------------------------------|
    |---55-5-22-555-5444-4-22--------------------|
    |---55-5-22-555-5444-4-22--------------------|
    |---55-5-22-555-5444-4-22--------------------|
    
    |--------------------------------------------|
    |---------11---11-------11---11--------------|
    |-----9-------------9------------------------|
    |---9---9----9----9---9----9-----------------|
    |--------------------------------------------|
    |--------------------------------------------|
    
    
    |--------------------------------------------|
    |---------10---10--------10---10-------------|
    |-----9--------------9-----------------------|
    |---9---9----9-----9---9----9----------------|
    |--------------------------------------------|
    |--------------------------------------------|
    
    |--------------------------------------------|
    |---------11---11-------11---11--------------|
    |-----9-------------9------------------------|
    |---9---9----9----9---9----9-----------------|
    |--------------------------------------------|
    |--------------------------------------------|
    
    
    |--------------------------------------------|
    |---------12---12--------12---12-------------|
    |-----9--------------9-----------------------|
    |---9---9----9-----9---9----9----------------|
    |--------------------------------------------|
    |--------------------------------------------|
    
    |--------------------------------------------|
    |---------11---11-------11---11--------------|
    |-----9-------------9------------------------|
    |---9---9----9----9---9----9-----------------|
    |--------------------------------------------|
    |--------------------------------------------|
    
    
    |--------------------------------------------|
    |---------10---10--------10---10-------------|
    |-----9--------------9-----------------------|
    |---9---9----9-----9---9----9----------------|
    |--------------------------------------------|
    |--------------------------------------------|
    
    |--------------------------------------------|
    |---------11---11-------11---11--------------|
    |-----9-------------9------------------------|
    |---9---9----9----9---9----9-----------------|
    |--------------------------------------------|
    |--------------------------------------------|
    Bridge
    |--------------------------------------------|
    |--11----------------------------------------|
    |--------------------------------------------|
    |--------------------------------------------|
    |-----000000000000000------------------------|
    |--------------------------------------------|
    Chorus
    |------------------|
    |------------------|
    |------------------|
    |----11--9--7------|
    |----11--9--7------|
    |----11--9--7------|
    
    |------------------|
    |------------------|
    |------------------|
    |----11--9--7------|
    |----11--9--7------|
    |----11--9--7------|
    
    |------------------|
    |------------------|
    |------------------|
    |----11--9--7------|
    |----11--9--7------|
    |----11--9--7------|
    
    |------------------|
    |------------------|
    |------------------|
    |----11--9--7------|
    |----11--9--7------|
    |----11--9--7------|
    
    Verse
    
    |--------------------------------------------|
    |--------------------------------------------|
    |--------------------------------------------|
    |---55-5-22-555-5444-4-22--------------------|
    |---55-5-22-555-5444-4-22--------------------|
    |---55-5-22-555-5444-4-22--------------------|
    
    |--------------------------------------------|
    |--------------------------------------------|
    |--------------------------------------------|
    |---55-5-22-555-5444-4-22--------------------|
    |---55-5-22-555-5444-4-22--------------------|
    |---55-5-22-555-5444-4-22--------------------|
    
    |--------------------------------------------|
    |---------11---11-------11---11--------------|
    |-----9-------------9------------------------|
    |---9---9----9----9---9----9-----------------|
    |--------------------------------------------|
    |--------------------------------------------|
    
    
    |--------------------------------------------|
    |---------10---10--------10---10-------------|
    |-----9--------------9-----------------------|
    |---9---9----9-----9---9----9----------------|
    |--------------------------------------------|
    |--------------------------------------------|
    
    |--------------------------------------------|
    |---------11---11-------11---11--------------|
    |-----9-------------9------------------------|
    |---9---9----9----9---9----9-----------------|
    |--------------------------------------------|
    |--------------------------------------------|
    
    
    |--------------------------------------------|
    |---------12---12--------12---12-------------|
    |-----9--------------9-----------------------|
    |---9---9----9-----9---9----9----------------|
    |--------------------------------------------|
    |--------------------------------------------|
    
    |--------------------------------------------|
    |---------11---11-------11---11--------------|
    |-----9-------------9------------------------|
    |---9---9----9----9---9----9-----------------|
    |--------------------------------------------|
    |--------------------------------------------|
    
    
    |--------------------------------------------|
    |---------10---10--------10---10-------------|
    |-----9--------------9-----------------------|
    |---9---9----9-----9---9----9----------------|
    |--------------------------------------------|
    |--------------------------------------------|
    
    |--------------------------------------------|
    |---------11---11-------11---11--------------|
    |-----9-------------9------------------------|
    |---9---9----9----9---9----9-----------------|
    |--------------------------------------------|
    |--------------------------------------------|
    Bridge
    |--------------------------------------------|
    |--11----------------------------------------|
    |--------------------------------------------|
    |--------------------------------------------|
    |-----000000000000000------------------------|
    |--------------------------------------------|
    
    Chorus
    |------------------|
    |------------------|
    |------------------|
    |----11--9--7------|
    |----11--9--7------|
    |----11--9--7------|
    
    |------------------|
    |------------------|
    |------------------|
    |----11--9--7------|
    |----11--9--7------|
    |----11--9--7------|
    
    |------------------|
    |------------------|
    |------------------|
    |----11--9--7------|
    |----11--9--7------|
    |----11--9--7------|
    
    |------------------|
    |------------------|
    |------------------|
    |----11--9--7------|
    |----11--9--7------|
    |----11--9--7------|
    
    Solo
    |--------------------------------------------|
    |--------------------------------------------|
    |--------------------------------------------|
    |-7b--5-7-5-4h5-4--4h5-4h5p4-----------------|
    |----------------------------4-5-7--5-4-0----|
    |--------------------------------------------|
    
    |------------7--10-8-7-----------------------|
    |--9~-7h9-10-----------8~-7-9----------------|
    |--------------------------------------------|
    |--------------------------------------------|
    |--------------------------------------------|
    |--------------------------------------------|
    
    |--------------------------------------------|
    |--------------------------------------------|
    |--7h9-7--5h7-5--4h5-4-2h4-0-----------------|
    |--------------------------------------------|
    |--------------------------------------------|
    |--------------------------------------------|
    
    |---------------------2h3----2h3----2h3p2h3p2-|
    |-------------------------3------3------------|
    |--2-02-02020202--2b--------------------------|
    |---------------------------------------------|
    |---------------------------------------------|
    |---------------------------------------------|
    
    |--2h3---2h3----3p2--------------------------|
    |------3-----3-------------------------------|
    |--------------------------------------------|
    |--------------------------------------------|
    |--------------------------------------------|
    |--------------------------------------------|
    
    |---2h3-5--3h5/7--5h7/8-7h8/10---------------|
    |--------------------------------------------|
    |--------------------------------------------|
    |--------------------------------------------|
    |--------------------------------------------|
    |--------------------------------------------|
    
    Break…
  • Verse:
          x2                      x3       x2          
    E--------9--9-|--------9-|---------|-----0-0-|-----0-|-------|
    B-------10-10-|-------10-|---------|-----5-5-|-----5-|-------|
    G--------9--9-|--------9-|-----0-0-|-----6-6-|-----6-|-----0-|…
  • There is:
    * = Palm mute 
    x = Muted , struck string                  
    / = Slide up
     = Slide down
    Intro 1
    Intro 2
    Riff 1
    Riff 2
    Riff 3
    Chorus 1
    Chorus 2
    Chorus 3
    Chorus 4
    
    
    (intro 1)
    |-----------------------------------------------------------------------|
    |-----------------------------------------------------------------------|
    |-----------------------------------------------------------------------|
    |-----------------------------------------------------------------------|
    |---1-----0----0-1-1-1-1//3-3-3------------5-------0--------8------5----|
    |-1----1---------------------------------5-------5-------5-------5------|
    
    |--------------------------------------------------------|
    |--------------------------------------------------------|
    |--------------------------------------------------------|
    |3//5-5-5-5-3-3-3-------8------------------------------|
    |---------------------6------6---0------0-1-1-1-1//3-3-3-|
    |--------------------------------------------------------|
    
    |---------------------------------------------------------------------------------------------------------|
    |---------------------------------------------------------------------------------------------------------|
    |---------------------------------------------------------------------------------------------------------|
    |-5-5-5-5---5-5-5---5-5-5---5-5-5---3//5-5-53-3-3----1-1-1-x-1-1-1-x-1-1-1-x-1-1-1----------------------|…
  • Standard tuning
    *=harmonic
    x=mute note
    /=slide
    ~=let ring
    Part A
    guitar one
    e----------------------------------------|
    b----------------------------------------|
    g-7-7-7-7--------------------------------|
    d-9-9-9-9--11-11-11-11--9-9-9-9-9-9-9-9--|
    a-9-9-9-9--11-11-11-11--9-9-9-9-9-9-9-9--|
    e-0-0-0-0--9--9--9--9---7-7-7-7-7-7-7-7--|
    
    guitar…
  • Intro
    Part 1
     e[-------------------------------------------------------------------]
     b[-------------------------------------------------------------------]
     g[-------------------------------------------------------------------]…
  • Intro
    
    Dave:
          NH    NH    NH    NH   NH     NH    NH    NH
    e|--------------------------------------------------------------|
    b|--------------------------------------------------------------|
    g|--------------------------------------------------------------|
    d|------------------------------------------------------5/7b----|
    a|-00----00----00----00----00----00----00----00-----5-7------8--|
    D|-00-5*-00-5*-00-5*-00-5*-00-7*-00-7*-00-7*-00-7*--------------|…
  • Tuning: Drop-D   DADGBe
    
    Intro
    e|-------------|
    B|-------------| 
    G|---3b(4)-----| Tremlo pick, slow bend up
    D|-------------|
    A|-------------|
    D|-------------|
    
    Main Riff
    E|---------------------------------------------|
    B|---------------------------------------------|
    G|---------------------------------------------|
    D|---------------------------------------------|
    A|---8-5--------------------8-5----------------|…
  • INTRO:
    intro part 1:   (with distortion)
    E|--------------------------------|--------------------------------|
    B|--------------------------------|--------------------------------|
    G|--------------------------------|--------------------------------|
    d|3-------------------------------|4-------------------------------|
    A|4-------------------------------|5-------------------------------|
    D|4-------------------------------|5-------------------------------|…
  • Standars Tunining - EADGBE
    
    RIFF 1
    
    E----------------------------------|
    A----------------------------------|
    D----------------------------------|
    G----------------------------------|
    B---------------3-3-3/1-1-0-0-0-0--|
    E-0-X-X-X-X-X-0--------------------|…
  • Intro (mainly 2-handed tapping)
    
    |--------------------------------------------------------------------------|
    |5h12p8h12p7h12p5h12p4h12p5h12p7h12p8-13p10h13p8h13p7h13p5h13p7h13p8h13p10-|
    |--------------------------------------------------------------------------|
    |--------------------------------------------------------------------------|
    |--------------------------------------------------------------------------|
    |--------------------------------------------------------------------------|
    
    
    |--------------------------------------------------------------------------|
    |-h10p8h10p7h10p5h10--h10p5h10p7h10p8-5p4p0h5p4p0h5p4p0h5p4p07p4p0h7p4p0h8-|
    |h7------------------h7----------------------------------------------------|
    |--------------------------------------------------------------------------|
    |--------------------------------------------------------------------------|
    |--------------------------------------------------------------------------|
    
    
    |--------------------------------------------------------------------------|
    |5h12p8h12p7h12p5h12p4h12p5h12p7h12p8--13p10h13p8h13p7h13p5h13p7h13p8h13p10|
    |--------------------------------------------------------------------------|
    |--------------------------------------------------------------------------|
    |--------------------------------------------------------------------------|
    |--------------------------------------------------------------------------|
    
    
    |------------------------------------0h4h5p0h4h5p0h4h5p0h4h5-0h7h8p0h7h8-11|
    |-h10p8h10p7h10p5h10--h10p5h10p7h10p8--------------------------------------|
    |7------------------h7-----------------------------------------------------|
    |--------------------------------------------------------------------------|
    |--------------------------------------------------------------------------|
    |--------------------------------------------------------------------------|
    
    
    
    |--------------------------------------------------------------------------|
    |-------12p0h10p0h10p0h8p0h8p0h7p0h7p0h5p0h5p0h4p0h4p0h5p0h5p0h7p0h7p0h8---|
    |--------------------------------------------------------------------------|
    |--------------------------------------------------------------------------|
    |--------------------------------------------------------------------------|
    |--------------------------------------------------------------------------|
    
    
    |--------------------------------------------------------------------------|
    |------12p0h12p0h10p0h10p0h8p0h8p0h7p0h7p0h5p0h5p0h3p0h3p0h5p0h5p0h7p0h7---|
    |--------------------------------------------------------------------------|
    |--------------------------------------------------------------------------|
    |--------------------------------------------------------------------------|
    |--------------------------------------------------------------------------|
    
    
    |--------------------------------------------------------------------------|
    |-----12p3p0h3h10p3p0h3h8p3p0h3h7p3p0h3h5p3p0h7p3p0h3h8p3p0h3h10p3p0h3-----|
    |--------------------------------------------------------------------------|
    |--------------------------------------------------------------------------|
    |--------------------------------------------------------------------------|
    |--------------------------------------------------------------------------|
    
    
    
    |----------------10--------------------------------------------------------|
    |-----8p6h8p6-10----12-12-13-13-12-12-10-10-12-12--8p6h8p6-----------------|
    |--------------------------------------------------------------------------|
    |--------------------------------------------------------------------------|
    |--------------------------------------------------------------------------|
    |--------------------------------------------------------------------------|
    
    Verse
    
    |---12-12-12-12-12-12-12--12-12-12-12-12-12-12---15-15-15-15-15-15-15--17--|
    |---12-12-12-12-12-12-12--12-12-12-12-12-12-12---15-15-15-15-15-15-15--15--|
    |---8--8--8--8--8--8--8---8--8--8--8--8--8--8----12-12-12-12-12-12-12--12--|
    |--------------------------------------------------------------------------|
    |--------------------------------------------------------------------------|
    |--------------------------------------------------------------------------|
    
    |-17-17-17-19-19-19----|
    |-15-15-15-15-15-15----|
    |-12-12-12-12-12-12----|
    |----------------------|
    |----------------------|
    |----------------------|
    
    |-10-10-10-10-10-10-10---12-12-12-12-10-10-10-…
  • Intro:
    E------------------------------|
    B------------------------------|
    G------------------------------|
    D-0-0-0-0-11-0-0-0-0-12-0-0-12-|
    A-0-0-0-0-11-0-0-0-0-12-0-0-12-| x3 
    D-0-0-0-0-11-0-0-0-0-12-0-0-12-|  
    
    E--------------------------|
    B--------------------------|
    G--------------------------|
    D-0-0-0-0-11-0-4-0-1-1-1-1-|
    A-0-0-0-0-11-0-4-0-1-1-1-1-|…
  • Intro (Play once)
    
    Guitar 1
    
    e -----------------------------------------------------------------------------------|
    B -----------------------------------------------------------------------------------|
    G ----------2---------2----------2---------2------------2-------------2-----------2--|
    D…
  • Tuning: drop d          
    e|---------------------------------------------------------------|-----------|
    B|---------------------------------------------------------------|-----------|
    G|---------+---------------------------+-------------------------|:----------|
    D|------+--5------------------3-----+--7----------0-----------3--|:--3-----3-|
    A|---+--5------------------3-----+--7----------8-----------3-----|------0----|
    D|---5------------2-----3--------7----------8-----------3--------|0----------|
    
    e|---------------------------------------------------------------------------|
    B|---------------------------------------------------------------------------|
    G|--------------------------------------------------------------------------:|
    D|------------3-------3------------3-----3-----3-----3-----3-2--------------:|
    A|---0-----0----0------------0--1-----1-----1-----1-----1--------------------|
    E|------0----------0------0--------------------------------------------------|
    
    e|---------------------------------------------------------------------------|
    B|---------------------------------------------------------------------------|
    G|----------------------------------------------5555---3333---22-0-----------|
    D|-----------12-----------14------------5------------------------------------|
    A|-------10-----------12------------3----------------------------------------|
    D|---10-----------12-------------3-------------------------------------------|
    
    e|---------------------------------------------------------------------------|
    B|---------------------------------------------------------------------------|
    G|----------------------------------------------6666---8888---11-11-9--------|
    D|-----------12-----------14------------5------------------------------------|
    A|-------10-----------12------------3----------------------------------------|
    D|---10-----------12-------------3-------------------------------------------|
    
    
    |…
  • VERSE
    B			         D
    The snow across the old white fields
    B			D
    I have no care so long as you're safe
    B				D
    And it's been settling down quite thick this year
    B						D
    She was a teacher to me, I remember when she…
  • Intro
    E|---------------------------------------------------|
    B|---------------------------------------------------|
    G|-------------------------------------5^------------|
    D|--------------5^-----------------------------------|
    A|-------3-0-3-----3-0-3--------3-0-3----3-0-3-------|
    D|--0-0---------------------0-0----------------------|
    
    E|---------------------------------------------------|
    B|---------------------------------------------------|
    G|---------------------------------------------------|
    D|--------------5^---------------3---3------3---3----|
    A|-------3-0-3-----3-0-3-----------0----------0------|
    D|--0-0---------------------0-0--------0-0-----------|
    
    
    E|---------------------------------------------------|
    B|---------------------------------------------------|
    G|---------------------------------------------------|
    D|--000--444--888--1-11------------------------------|
    A|--000--444--888--1-11------------------------------|
    D|--000--444--888--1-11------------------------------|
    
    E|---------------------------------------------------|
    B|---------------------------------------------------|
    G|---------------------------------------------------|
    D|--000--444--888--1-111-----------------------------|
    A|--000--444--888--1-111-----------------------------|
    D|--000--444--888--1-111-----------------------------|…
  • Tuning: Drop D
    
    intro
    
    |------------------------------|
    |------------------------------|
    |--------2-----------2---------|
    |------------------------------|
    |----3-----3------3-----3------|
    |--3------------3--------------|
    
    |------------------------------|
    |------------------------------|
    |--------2-----------2---------|
    |------------------------------|
    |----3-----3------3-----3------|
    |--3------------3--------------|
    
    |---------------------------------------|
    |---------------------------------------|
    |---------------------------------------|
    |------3/5~----3~------2~-------2-------|
    |----0-------0-------0--------0---0-----|
    |--0-------0-------0--------0-----------|
    
    Verse
    
    |------------------------------|
    |------------------------------|
    |--------2-----------2---------|
    |------------------------------|
    |----3-----3------3-----3------|
    |--3------------3--------------|
    
    |------------------------------|
    |------------------------------|
    |--------2-----------2---------|
    |------------------------------|
    |----3-----3------3-----3------|
    |--3------------3--------------|
    
    |---------------------------------------|
    |---------------------------------------|
    |---------------------------------------|
    |------3/5~----3~------2~-------2-------|
    |----0-------0-------0--------0---0-----|
    |--0-------0-------0--------0-----------|
    
    |---------------------------------------|
    |---------------------------------------|
    |---------------------------------------|
    |------7-----12----7-----12------7-12---|
    |----8-----8-----8-----8-------7--------|
    |--8-----8-----8-----8-------7----------|
    
    
    |------------------|
    |------------------|
    |------------------|
    |--12b-8-777-------|
    |------------------|
    |------------------|
    
    Little…
  • Chorus 
    E|-----------------------------------------------------------------------------------|
    B|-----------------------------------------------------------------------------------|
    G|----------------------------44444444-----------------------------------------------|
    D|--7-7-7-7-7-7-7-7---3-3-3-3-----------5-5-5-5-5-5-5-5-5-5-5-5-10-10-10-10-9-9-9-9--|
    A|--7-7-7-7-7-7-7-7---3-3-3-3-----------5-5-5-5-5-5-5-5-5-5-5-5-10-10-10-10-9-9-9-9--|
    D|--7-7-7-7-7-7-7-7---3-3-3-3-----------5-5-5-5-5-5-5-5-5-5-5-5-10-10-10-10-9-9-9-9--|
    
    Verse…
  • Tuning:Drop D Tuning (DADGBE)
    
    (Guitar 1)
    (Intro part 1)Use effect! not distortion!
    |---------------------------------------------|
    |---------------------------------------------|
    |---------------------------------------------|
    |-----109---9---7h9-7-0---------------------|
    |---7-----------------------------------------|
    |-7---------7---7-----------------------------|
    
    (Intro…
  • Intro:
     
    E-5*----------------|      |-0--0--|
    B----5*-------------|      |-------|
    G-------------------| then |-------|  the note 0 is played every
    D-------9*-7*----9*-|      |-------|  2 beats
    A-------------9*----|…
  • Tuning: Standard 4 stringed
    
    
    Intro
    G|-----------------------|
    D|-----------------------|
    A|-0--0--0--0--3--3------|
    E|------------------3--3-|
    
    G|----------------------------------------------------------------|
    D|----------------------------------------------------------------|
    A|-0-0-0-0-0-0-0-0-3-3-3-3---------0-0-0-0-0-0-0-0-5-5-5-5--------|
    E|-------------------------3-3-3-3------------------------3-3-3-3-|
    (same…
  • Intro
    e|--------------------------------------------------------------------------|
    g|--------------------------------------------------------------------------|
    b|--------------------------------------------------------------------------|
    d|--------------------------------------------------------------------------|
    a|--------------------------------------------------------------------------|
    D|-12h15-0-0-0-0-12h15-11h14-0-0-0-0-12h15-14h17-0-0-0-0-14h17-15h18-14h17--|
    
    e|--------------------------------------------------------------------------|
    b|-----------------------------------------------------5*-------------------|
    g|--------------------------------------------------------------------------|
    d|----------------------------------------8--11--5--4-----------------------|
    a|----------------------------------------8--11--5--4-----------------------|
    D|-12h15-0-0-0-0-12h15-11h14--------------8--11--5--4-----------------------|
    
    e|--------------------------------------------------------------------------|
    g|--------------------------------------------------------------------------|
    b|--------------------------------------------------------------------------|
    d|--------------------------------------------------------------------------|
    a|--------------------------------------------------------------------------|
    D|-12h15-0-0-0-0-12h15-11h14-0-0-0-0-12h15-14h17-0-0-0-0-14h17-15h18-14h17--|
    
    e|--------------------------------------------------------------------------|
    g|--------------------------------------------------------------------------|
    b|--------------------------------------------------------------------------|
    d|---------------------------------10/12--------5/7-------------------------|
    a|-------3-5---------5-7-------12------------7-------------------------------|
    D|-0-5-5-------0-7-7--------0-------------0---------------------------------|…
  • |-----12---14-16b17r16-----------------------------5*-5*---------------------------------|
    |7/10------------------17-12-14-9-10\5-------5*-5*-------5*-5*-7*-5*-5h7p5--\2--0-----/10|
    |---------------------------------------------------------------------------------2------|
    |----------------------------------------------------------------------------------------|
    |----------------------------------------------------------------------------------------|
    |----------------------------------------------------------------------------------------|
    
    |------------------------------------------|
    |5/8-10---12-12b13r12-10---10b12r10-9---5/7|
    |------------------------------------------|
    |------------------------------------------|
    |------------------------------------------|
    |------------------------------------------|
    
    |----------------7p5p4p0-9p5p4p0|
    |9p5p4p0-7p5p4p0----------------|
    |-------------------------------|
    |-------------------------------|…
  • Intro                                         
    E---------------------------------------------
    B---------------------------------------------
    G---------------------------------------------
    D--5p40---5p0---------------------------4---7-
    A--------------5p40---5p4-0--5p4-0----------7-
    D----------------------------------5-7------7-
    
    "Come…
  • Tuning: Drop D
    
    
    Intro
    
    
    e|---------------------------------------|
    b|---------------------------------------|
    g|---------------------------------------|
    d|---------------------------------------|
    a|---------------------------------------|
    D|--<4><4><4><3><3><3><2><2><2>----------|
    
    This…
  • Flanger/Phaser effect  (/= only play proceeding note for a short time)
    E|--------------------------------------|
    B|--------------------------------------|
    G|--------------------------------------|
    D|--------------------------------------|
    A|--------------------------2-2-2-3-3-3-|
    D|-7--5--3/5--2--6-2/3/2--0-------------|
    
    Verse…
  • Tuning: Standard E
    
    
    Intro
           *****      *****
    |---------------------------------------|
    |---------------------------------------|
    |--55-55555---77-77777------------------|
    |--55-55555---77-77777------------------|
    |--33-33333---55-55555------------------|
    |---------------------------------------|…
  • Intro
    
    e|-----------------------------|--------------------------------|
    b|-----------------------------|--------------------------------|
    g|-/9--/12--11--9--11-7--/9-7--|--/9--/12--11--9--12-11-/12-11--|
    d|--x---x---x---x--x--x---x-x--|---x---x---x---x--x--x---x--x---|
    a|-/7--/10--9---7--9--5--/7-5--|--/7--/10--9---7--10-9--/10-9---|
    D|-----------------------------|--------------------------------|
    
    
    e|-----------------------------|--------------------------------|
    b|-----------------------------|--------------------------------|
    g|-/9--/12--11--9--11-7--/9-7--|--/9--/12--11--9--12-11-/12-11--|
    d|--x---x---x---x--x--x---x-x--|---x---x---x---x--x--x---x--x---|
    a|-/7--/10--9---7--9--5--/7-5--|--/7--/10--9---7--10-9--/10-9---|
    D|-----------------------------|--------------------------------|
    
    
    Verse
    
    e|--/5-5-3-5-------|--/5-5-3-5------------|
    b|-----------5/7---|------------5/7-------|
    g|-----------------|----------------------|
    d|-----------------|----------------------|
    a|-----------------|----------------------|
    D|-----------------|----------------------|
    
    
    e|----------------------------------------|
    b|-------------------------------10-9-----|
    g|-5---9---7---9--------------------------|
    d|-x---x---x---x---ALL…
  • Drop D
    
    
    e -------------------7p3-----7p3---------------------|
    B -----------------------7p3-----7p3--7p3------------|
    G ---------------------------------------------------|
    D ----7/9-9--7--5------------------------------------|
    A…
  • -E Standard
    
    
    F*   Am*
    x    x
    x    0
    3    2
    2    2
    1    1
    3    3
    
    
    Intro
    F* Am* G x 2 (the G is played at the end sharply)
    
    Verse:
    
    F*		          Am*				        G
    Met this bloke today, looked at me in a…
  • *Intro part1
    e|------------------------------------------------------|
    B|------------------------------------------------------|
    G|------------------------------------------------------|
    D|-3--3--3--1--1--1-1-----------5/6-6----------5/6-5----|
    A|-3--3--3--1--1--1-1---3h4-4-4--------3h4-4-4-------6--|
    D|-3--3--3--1--1--1-1-----------------------------------|
    
    *Intro…
  • Intro:-
    E--------------------------------
    B--------------------------------
    G--------------------------------
    D--55-33-66-22--55-33h6-1/2/3/4--
    A--55-33-66-22--55-33h6-1/2/3/4--
    D--55-33-66-22--55-33h6-1/2/3/4--
    
    (0.06)
    E--------------------------------
    B--------------------------------
    G--------------------------------
    D--55-33-66-22--55-33-66--6h7----…
  • intro
    
    ---------------------------------------
    ---------------------------------------
    --------------------------141414121215-
    -----10-----10---------14--------------
    -8888---8888---12121212----------------
    -8888---8888---12121212----------------
    
    
    ---------------------------------------
    ---------------------------------------
    --------------------------141414121010-
    -----10-----10---------14--------------
    -8888---8888---12121212----------------
    -8888---8888---12121212----------------
    
    verse
    
    -------------------------------
    -------------------------------
    -------------------------------
    ---10---10--------14------14---
    --8--8-8--8-----12--12--12--12-
    -8----8-------12------12-------
    
    pre…
Наверх