Аккорды «Insane Clown Posse»

Insane Clown Posse
Insane Clown Posse (также известны как ICP) — хип-хоп дуэт из города Детройт, штат Мичиган. Состоит из Джозефа Брюса (Violent J) и Джозефа Утслера (Shaggy 2 Dope). Исполняют подвид хардкор-рэпа, который известен под названием хорроркор со своими мрачными, жестокими текстами. Скандально известны из-за своих мрачных, жестоких и кровожадных песен и благодаря своим атмосферным, детально проработанным концертам. По сведениям Reuters записи дуэта разошлись общим тиражом 6.5 миллионов копий в США и… Читать полностью... Insane Clown Posse (также известны как ICP) — хип-хоп дуэт из города Детройт, штат Мичиган. Состоит из Джозефа Брюса (Violent J) и Джозефа Утслера (Shaggy 2 Dope). Исполняют подвид хардкор-рэпа, который известен под названием хорроркор со своими мрачными, жестокими текстами. Скандально известны из-за своих мрачных, жестоких и кровожадных песен и благодаря своим атмосферным, детально проработанным концертам. По сведениям Reuters записи дуэта разошлись общим тиражом 6.5 миллионов копий в США и Канаде, но были раскритикованы музыкальными специалистами из-за безжалостного, жестокого и безумного содержания песен группы и получили отрицательные отзывы от Rolling Stones, Blender, Vibe и других музыкальных изданий. На счету у дуэта три золотых и два платиновых альбома. Помимо музыкальной деятельности известны тем, что основали свою реслинг-федерацию под названием «Juggalo Championship Wrestling»; музыканты выпустили свои собственные пародийные фильмы под названием «Big Money Hustlas» и "Big Money Rustlas" Скрыть...
Популярные аккорды Insane Clown Posse:
алфавиту | просмотрам | случайно
  • tuning: E B G D A E
    
    
    intro
    e|----------0-------------------------------0-----------------------|
    B|----------0-------------------------------0-----------------------|
    G|------------------------------------------------------------------|
    D|-----2---------------2-4-4--2--------2----------------------------|
    A|-2H4--------4----2H4---5-5--4----2H4---------4--------------------|
    E|-------0-------------------------------0--------------------------|
    
    e|------------------------------------------------------------------|
    B|------------------------------------------------------------------|
    G|-----------------9------------------------------------------------|
    D|-----2--4-4--2---9H11-9-7-----------------------------------------|
    A|-2H4----5-5--4-----------9-7--------------------------------------|
    E|------------------------------------------------------------------|
    
    
    verse
    e|----------0--------------------------------0----------------------|
    B|----------0--------------------------------0----------------------|
    G|------------------------------------------------------------------|
    D|-----2----------------2-4-4--2--------2----------------2--4-4--2--|
    A|-2H4---------4----2H4---5-5--4----2H4---------4---2H4-----5-5--4--|
    E|-------0--------------------------------0-------------------------|
    
    
    pre-chorus
    e|------------------------------------------------------------------|
    B|-------------3---------------3------------------------------------|
    G|-x-2---------2---x-2---------2------------------------------------|
    D|-x-2-----2H4-----x-2-----2H4--------------------------------------|
    A|-x-0-------------x-0----------------------------------------------|
    E|------------------------------------------------------------------|
    
    
    chorus
    e|------------------------------------------------------------------|
    B|------------------------------------------------------------------|
    G|--------------6-6--4--4-4-----------------------------------------|
    D|-2--x-2--2-2--6-6--4--4-4-----7-7-7-7-7-7-7-7--9-9-9-9-9-9------2-|
    A|-2--x-2--2-2--4-4--2--2-2-----7-7-7-7-7-7-7-7--9-9-9-9-9-9--2H4---|
    E|-0--x-0--0-0------------------5-5-5-5-5-5-5-5--7-7-7-7-7-7--------|…
  • intro/chorus:
    E:---------------------------------|
    B:---------------------------------|
    G:-6-------6-------6---------------|
    D:-6---6-6-6---6-6-6-------6-4---4-|
    A:-4---4-4-4---4-4-4---4-6-----6---|
    E:---------------------------------|…
  • Intro
    |---------------------------------|
    |--0-0-0-0-0-0------0-0-0-0-0-0---|
    |---------------------------------|
    |--2-2-2-2-2-2------2-2-2-2-2-2---|
    |--2-2-2-2-2-2------2-2-2-2-2-2---|
    |--0-0-0-0-0-0-5----0-0-0-0-0-0-3-|
    
    
    Chorus
    |----------------------------------|
    |----------------------------------|
    |----------------------------------|
    |--5-5-5-5-8-8-8-8-7-7-7-7-7-5-5-5-|
    |--5-5-5-5-8-8-8-8-7-7-7-7-7-5-5-5-|
    |--3-3-3-3-6-6-6-6-5-5-5-5-5-3-3-3-|…
  • Intro
    ~~~~~
    |--------------------------------------------------------------|
    |--------------------------------------------------------------|
    |--------------------------------7-7-7-7--7-7-7-7-7-7-7--7-7-7-|
    |--7-7-7-7--7-7-7-7-7-7-7--7-7-7-7-7-7-7--7-7-7-7-7-7-7--7-7-7-|
    |--7-7-7-7--7-7-7-7-7-7-7--7-7-7-5-5-5-5--5-5-5-5-5-5-5--5-5-5-|
    |--5-5-5-5--5-5-5-5-5-5-5--5-5-5-------------------------------|
    
    
    Verse
    ~~~~~…
  • Tune the LOW down to D
    
    
    Main Riff
    ~~~~~~~~~
    E-------------
    B-------------
    G-------------
    D--0----6-5-3- This plays and repeats during every chorus
    A--0----6-5-3-
    D--0----6-5-3-
    
    
    Solo
    E--------------------------------------------------------------------------------------------10-10-10-10-10------------
    B-10-10-10-10-10-10-10-10-10-10-10-10-10-10-10-10-10----8-10-----------10--------------------10?10---
    G------------------------------------------------------------------------------7-8?7------------------------------------7
    D---------------------------------------------------------------------------------------------------------------------------
    A---------------------------------------------------------------------------------------------------------------------------
    D---------------------------------------------------------------------------------------------------------------------------…
  • --------------------------------------
    --------------------------------------
    -------------------------------------- x2
     -------------------------------------
    --5--5--5--5-5-5--7--7--7--7-7-7------
    33-33-33-33-3-3-55-55-55-55-5-5-------
    
    ------------------
    ------------------
    ------------------…
  • Intro/Chorus/Bridge
    G-------------------------------------------
    D-----------------2-------------------------
    A------2/3—-2--0---------------2/3-2--5-----
    E-3~-3----------------0-2/3--3--------------
    
    
    Verse 
    G-------------------------------------------
    D-----------------5-------------------------
    A-2--2--00-0-0--3----22-2-2-----------------
    E-------------------------------------------…
  • CHORUS
    e--------------------
    B--------------------
    G----------10/-------
    D-10/-(00)-10/-(00)--
    A-10/-(00)--8/-(00)--
    D-10/-(00)-----(00)--
    
    e--------------------
    B--------------------
    G----------10/-------
    D-10/-(00)-10/-(00)--
    A-10/-(00)--8/-(00)--
    D-10/-(00)-----(00)--
    
    e--------------------
    B--------------------
    G----------10/-------
    D-10/-(00)-10/-(00)--
    A-10/-(00)--8/-(00)--
    D-10/-(00)-----(00)--
    
    e--------------------
    B--------------------
    G----------10/-------
    D-10/-(00)-10/-(00)--
    A-10/-(00)--8/-(00)--
    D-10/-(00)-----(00)--…
  • Chorus:2X
    E---------------------
    B---------------------
    G---------------------
    D---------------------
    A-9---7---9-----------
    E-7---5---7-----------
    
    E---------------------
    B---------------------
    G---------------------
    D-9---7---9-----------
    A-7---5---7-----------
    E---------------------
    
    E---------------------
    B---------------------
    G---------------------
    D-555555577777777-----
    A-333333355555555-----
    E---------------------
    
    E---------------------
    B---------------------
    G---------------------
    D---------------------
    A-9999979999979999979-
    E-7777757777757777757-…
  • tuning e-a-d-g-b-e
    
    
    Intro
    ----------------------------------
    ----------------------------------
    -15~-17-15------------------------
    ---------16-14~-------------------
    ----------------------------------
    ----------------------------------
    
    
    Riff…
  • Verse
    (Palm Muted)
    e-----|------------------
    B-----|------------------
    G-----|------444---------
    D-999-|--OR--444---------
    A-999-|------222---------
    E-777-|------222---------
    
    
    Chorus
    e------------------------------------------------------
    B------------------------------------------------------
    G------------------------------------------------------
    D-9-7-10-9-99-99------9-7-9-12-99-99--9-12-9-7--10-9---
    A-9-7-10---99-99-(X2)-9-7-9-12-99-99--9-12-9-7--10-9---
    E-7-5--8-7-77-77------7-5-7-10-77-77--7—10-7-5--8--7---…
  • E:-----------------|----------------|
    B:-----------------|----------------|
    G:-----------------|----------------|
    D:-1---------------|4---------------|
    A:-1---------------|4---------------|
    E:-----------------|----------------|…
  • Intro
      |-------X4------|
    e||---------------|---------------|
    b||---------------|---------------|
    g||---6--8--------|---------------|
    d||---6--8--------|-666666666666--|
    a||---4--6--------|-444444444444--|
    e||---------------|---------------|
    
    
    Verse
    e||----------------------------------------------------------|
    b||----------------------------------------------------------|
    g||-----------------------------------------------------6--8-|
    d||--44444444333333332222222211111111-------------------6--8-|
    a||-----------------------------------------------------4--6-|
    e||----------------------------------------------------------|
    
    
    Chorus…
  • intro
    e|--------------------------------|
    b|--------------------------------|
    g|--------------------------------|
    D|--------------------------------| 
    A|-71-0--0-0--71-0--0---0--0-0--|
    E|---------------------0-3--------|
    
    
    verse
    e|--------------------------------|
    b|--------------------------------|
    g|--------------------------------|
    D|--------------------------------|
    A|-0--0-0--0--0-0--0--0-0--0--0---|
    E|-----------------------------0-3|
    
    
    chorus
    e|-------------------|
    b|-------------------|
    g|-------------------|
    D|-------------------|
    A|0--0-0-71-0-------|
    E|------------0-3----|…
  • D  C  G
    e:------------------------------------|
    B:-----------Although-These-Chords----|
    G:-7--5------Are-Mostly-Played-By-----|
    D:-7--5--5---Piano,--They-Sound-Good--|
    A:-5--3--5---If-Strummed-Well---------|
    E:-------3----------------------------|…
  • Tuning: Standard (G, D, A, E)
    
    
    |G|------------------------------------------------------------------------
    |D|------------------------------------------------------------------------
    |A|------------------------------------------------------------------------
    |E|------------------------------------------------------------------------
    
    
    Intro
    |G|----------|-------------------------|--------------|
    |D|----------|*-----------------------*|---7/--7/-----|
    |A|---REST---|*-----7--6--5~----------*|--------------|
    |E|----------|---0------------5--4--3--|--------------|
    
    
    Verse…
  • main riff 
    E|-0-2-3-5--2-3-0-| 
    
  • G|---------------------------------------------------------------------------|
    D|---------------------------------------------------------------------------|
    A|---------2--3-3-----------------------------------------------------------------|
    E|--3----3-----------------------------------------------------------------------|
    
    over…
  • Riff 1: (x11)
    G:----------|-------------|
    D:----------|-------------|
    A:----------|-------------|
    E:----------|---1---------|
    B:-1*******-|-0---1--1--4-|
    
    
    Pause for 2 measures
    Riff 1 (x11)
    Pause for 2 measures
    Riff 1 (x7)
    Pause…
  • Verse
    G----------------------------------------
    D----------------------------------------
    A---------------5--55--------------------
    E-0--00--5--55---------3---33------------
    
    
    Chorus
    G----------------------------------------
    D----------------------------------------
    A---------------5(x8)--------------------
    E-0(x8)-—5(x8)---------3(x8)-------------
    
    
    Post…
  • “Joey Fell In Love With A College Girl…..”
    e--------------------------------
    B--------------------------------
    G-1010-86-8-6---68---------------
    D-1010-86-8-6---68-10-1010-------
    A-8-8--64-6-4---46--8-8-8--------
    E-------------6------------------
    
    Then…
  • Verse
    e---------|-------
    B---------|-------
    G---------|-------
    D---2-----|-------
    A-3-------|--2----
    E-----3—3-|3---33-
    
    
    Chorus
    
    e-------------|-----------
    B-------------|-----------
    G-4-------(x3)|-2---------
    D-4-5-555-----|-2-3-333---
    A-2-5-555-----|-0-1-111---
    E---3-333-----|—----------
    
    
    Post…
  • Verse (Repeat 4 times)
    
    G----------------------------------------------------
    D----------------------------------------------------
    A------5----7-7-7-7-7-7-7----5----7-7-7-7-7-7-7-
    E-----------------------------------------------------
    
    2nd…
  • D|---2---|
    A|-----4-|
    E|-0-----|
    
    occasionaly it does this
    A|----2-4-|
    E|-0------|
    
    
    
  • G:-----------------|----------------|
    D:---------------2-|----------------|play
    A:-4-------2---2---|4-------2---2---|four
    E:-------4---4-----|------4---4-----|times
       1 + 2 + 3 + 4 + |1 + 2 + 3 + 4 + |
    
    
    G:-----------------|----------------|
    D:---------------7-|----------------|play
    A:-9-------7---7---|9-------7---7---|two
    E:-------9---9-----|------9---9-----|times…
  • D
    e-0h 2-----
    B-0h-3-----
    G-0h-2-----
    D----0-----
    A----------
    E----------
    
         Bm
    e----2-----
    B----3-----
    G----4-----
    D----4-----
    A-0h-2-----
    E----------
    
      G
    e-3--------
    B-3--------
    G-0--------
    D-0--------
    A-2--------
    E-3--------…
  • Verse
    G-------------------------
    D-------------------------
    A-3-----------------------
    E-------3-----1-----3-----
    
    
    Chorus
    G------------------------------
    D------------------------------
    A------------------------------
    E-3---5--3---5--6---8--6---8---…
  • DOWN TUNE E TO D
    
    
    INTRO
    E--------------|
    B--------------|
    G--------------|
    D--6-6-6-6--0--|     X8
    A--6-6-6-6--0--|
    D--6-6-6-6--0--|
    
    
    VERSE
    E-------------------------------|
    B-------------------------------|
    G-------------------------------|
    D-3--5---3--5---3--5---3--5--6--|…
  • Chorus
    e-----------------------------------
    B-----------------------------------
    G-----------------------------------
    D--6--6-5--6-6-5--6-6-5--6--9-8-----
    A-6--6-5--6-6-5--6-6-5--6--9-8-----
    E-4—-4/3--4—4/3--4-4/3--4--7-6-----
    
    And…
  • G|--------6------------------------------------------------------------------|
    D|---------------------------------------------------------------------------|
    A|--4-4-----4---4-5-6-7------------------------------------------------------|
    E|---------------------------------------------------------------------------|…
  • Intro:
    
    E-----------0--------------------------------0-----|
    B-----------0--------------------------------0-----|
    G--------------------------------------------------|
    D-----2----------------2--4-4--2-------2-----------|
    A-2H4----------4---2H4----5-5--4---2H4----------4--|
    E--------0--------------------------------0--------|
    
    E-----------------------------|
    B-----------------------------|
    G----------------9------------|
    D-----2--4-4--2--9H11-9-7-----|
    A-2H4----5-5--4-----------9-7-|
    E-----------------------------|
    
    
    Verse:
    
    E-----------0--------------------------------0---------------------|
    B-----------0--------------------------------0---------------------|
    G-----------------------------------------------------------------o|
    D-----2----------------2--4-4--2-------2----------------2--4-4--2-o|
    A-2H4----------4---2H4----5-5--4---2H4----------4---2H4----5-5--4--|
    E--------0--------------------------------0------------------------|
    
    
    Pre-Chorus:
    
    E------------------------------|
    B-----------3--------------3---|
    G-2---------2----2---------2---|
    D-2-----2H4------2-----2H4-----|
    A-0--------------0-------------|
    E------------------------------|
    
    
    Chorus:
    
    E----------------------------|-------------------------------------|
    B----------------------------|-------------------------------------|
    G---------------6-6--4--4-4-o|-2-2-2-2-2-2-2-2--4-4-4-4-4-4--------|
    D-2--x-2--2-2---6-6--4--4-4-o|-2-2-2-2-2-2-2-2--4-4-4-4-4-4------2-|
    A-2--x-2--2-2---4-4--2--2-2--|-0-0-0-0-0-0-0-0--2-2-2-2-2-2--2H4---|
    E-0--x-0--0-0----------------|-------------------------------------|…
  • standard tuning (E,A,D,G)
    
    
    |-----6---------------|
    |---------3-4--6---4--|
    |-4------------------6|
    |---------------------|
  • E------------|
    B------------|
    G------------|
    D--5/4-------| [dist]
    A--3/2-------|
    E------------|
     
    
    E---------------|
    B---------------|
    G---------------|
    D--5/4-x-x-x-x--| [wah/dist]
    A--3/2-x-x-x-x--|
    E------x-x-x-x--|
Наверх