Аккорды «Integrity»

Integrity
Безусловно, одна из лучших и наиболее самобытных групп на hardcore punk сцене была основана в Кливленде, Огайо в 1988 году на развалинах группы Diehard (1987-88). Первоначальный состав включал в себя Двида Хеллиона, Аарона Мелника (чуть позже присоединился и его брат), Тома Броуза и Тони Пайнса. Тексты группы затрагивают темы религии, сверхъестественного, психических расстройств, индивидуализма, оккультизма. Абсолютно всё, что записали в 90-х Integrity - это классика хардкора. Участники группы… Читать полностью... Безусловно, одна из лучших и наиболее самобытных групп на hardcore punk сцене была основана в Кливленде, Огайо в 1988 году на развалинах группы Diehard (1987-88). Первоначальный состав включал в себя Двида Хеллиона, Аарона Мелника (чуть позже присоединился и его брат), Тома Броуза и Тони Пайнса. Тексты группы затрагивают темы религии, сверхъестественного, психических расстройств, индивидуализма, оккультизма. Абсолютно всё, что записали в 90-х Integrity - это классика хардкора. Участники группы в разные годы: * Dwid Hellion - вокал (с 1988, Vermapyre, Irons, Roses Never Fade, ex-Diehard) * Tom Front - бас (1988-1989) * Tony Pines - ударные (1988-1991, 1994-1995, 2003, ex-Diehard, ex-One Life Crew) * Aaron Melnick - соло-гитара, бэк-вокал (1988-1998, Shin to Shin, ex-Diehard, ex-In Cold Blood, ex-One Life Crew) * Leon Melnick - бас (1989-1998, ex-In Cold Blood, ex-Inmates) * David Nicholi Araca - ударные (1991, умер в 1991 от аневризмы сосудов головного мозга, ex-False Hope, ex-Asphalt, ex-Children's Crusade, ex-Curst, ex-Knifedance, ex-No Parole, ex-The Dark, ex-The Guns) * Frank Cavanaugh - ритм-гитара (1991, ex-Filter, ex-Outface) * Bill McKinney - ритм-гитара (1991) * Chris Smith - ритм-гитара (1991-1994, Keelhaul, Terminal Lovers, ex-False Hope, ex-Sloth, ex-Asphalt, ex-Chemically Retarded, ex-Groin, ex-Knifedance, ex-Mammoth, ex-Smear the Queer, ex-The Inmates) * Frank Novineck - ритм-гитара (1994-1998, Hatebreed, ex-Ringworm, ex-Terror) * Count Zigar - ударные (1995-1996, Terminal Lovers, ex-Domestic Crisis, ex-Midnight, ex-Hangnail, ex-Armed Resistance) * Mark Konopka - ударные (1995) * Chris Dora - ударные (1996-1998, Kurnugia, Soulless, ex-All That Is Evil, ex-Bloodsick, ex-Caveman, ex-Dead of Night, ex-Decrepit, ex-Mutilation, ex-Ringworm, ex-Terror, ex-The Spawn of Satan, ex-Incantation (live), ex-Holy Ghost, ex-Sacreligious Impalement) * Craig Martini - бас (1998-2000, ex-Pitch Black Forecast, ex-Terror, ex-The Alter Boys) * Steve Felton - ударные (1998-2000, Hatrix, Scelestus, Mushroomhead, ex-(216), ex-10,000 Cadillacs, ex-Detroit Ave., ex-Tenafly Viper, ex-Trelleborg) * Dave Felton - гитара (1998-2000, Hatrix, Kriadiaz, ex-Centurion, ex-Purgatory, ex-(216), ex-Mushroomhead, ex-Runt, ex-S.O.S.) * Kevin Skelly - бас (1999, Hatrix, Hollow, S.O.S.) * Emery Ceo - ударные (1999-?, Kriadiaz, Ritual of Torment, ex-Torment, ex-Arenah, ex-Ritual, ex-Rotterdam, ex-Tormentor, S.O.S., ex-Dark Arena, ex-Blindside Blues Band, ex-Runt) * Mike Martini - гитара (1999-?, Venomin James, ex-State of Conviction, ex-The Alter Boys) * Justin Endres - гитара (1999, Law of Destruction, Pale Creation, Stresslord, ex-Odious Sanction, ex-Zymurgy) * Matt Lucy - гитара, перкуссия (1999, Pale Creation) * Brandon Stearns - бас (2000-2002) * Adam Gontier - ударные (2000-2002) * Vee Price - гитара, бэк-вокал (2000-2002) * Steve Rauckhorst - бас (2002-2003, 2005-2010, Pitch Black Forecast) * Mike Jochum - соло-гитара (2003, 2005-2009, Graven Rite, ex-In The Red) * John Comprix - соло-гитара (2003, Beyond Fear, Law of Destruction, Ringworm, Charred Walls of the Damned (live), ex-Spawn, ex-Winters Bane, ex-Tim "Ripper" Owens (live), ex-13 Faces) * Blaze Tischko - ритм-гитара, бэк-вокал (2003, ex-In Cold Blood, ex-One Life Crew) * Matt Brewer - ритм-гитара (2004-2010, ex-Years of Fire) * Nate Jochum - ударные (2005-2011, Graven Rite, American Werewolves, ex-In The Red) * Rob Orr - гитара, бас, ударные (с 2009, Gray Ghost) Скрыть...
Популярные аккорды Integrity:
алфавиту | просмотрам | случайно
  • E-----------------------------------------------------------|
    B-----------------------------------------------------------|
    G-----------------------------------------------------------|
    D-----------------------------------------------------------|
    A--2-------------2-------------3------2----6-----5-----3-3--|
    E--0-0-0-0-0-0-0-0-0-0-0-0-0-0-1-0-0-0-0-0-4-0-0-3-0-0-1-1--|
    
    
    E---------------------------|
    B---------------------------|
    G---------------------------|
    D---------------------------|
    A--3--2----3--2--6--5--3-3--|
    E--1--0----1--0--4--3--1-1--|…
  • verse                         chorus
    e|--------------------------|
    B|--------------------------|
    G|--------------------------|
    D|--------10-9-9-9-7-7-7-5--|
    A|--2-2--- 8-7-7-7-5-5-5-3--|
    E|--0-0-0-------------------|
    
    
    chorus
    e|------------------------------------------------|
    B|------------------------------------------------|
    G|------------------------------------------------|
    D|--------------7-7-7-----------------------------|
    A|--2-2-2-------5-5-5-------7-9-10-------7-9-10---|
    E|--0-0-0-0-0-0-------0-0-0-5-7-…
  • intro
    e|-------------------------------------|
    B|-------------------------------------|
    G|-------------------------------------|
    D|-------------------------------------|
    A|--2----5----2----5----8--8--8--8--2--|
    E|--0----3----0----3----6--6--6--6--0--|…
  • verse
    E-----------------------------------------------------|
    B-----------------------------------------------------|
    G-----------------------------------------------------|
    D-----------------------------------------------------|
    A--2-2-2-2-2-2-2-2-2-7-5-3-5-5-5-5-5-5-8-8-8-8-8------|
    E--0-0-0-0-0-0-0-0-0-5-3-1-3-3-3-3-3-3-6-6-6-6-6------|…
  • verse
    E----------------------------------------------------------------
    B----------------------------------------------------------------
    G----------------------------------------------------------------
    D----------------------------------------------------------------
    A--2-4--4-5-5-5-5-4--4-7-7-7-7-4--4-5-5-5-5-4--4-7-5-------------
    E--0-2--2-3-3-3-3-2--2-5-5-5-5-2--2-3-3-3-3-2--2-5-3-------------
    
    
    chorus
    E----------------------------------------------------------------
    B----------------------------------------------------------------
    G----------------------------------------------------------------
    D-----------12-12-12-11---11-------------------------------------
    A--2-----2--10-10-10--9----9---------------------------------2-4-
    E--0-----0---------------------------------------------------0-2-…
  • verse 1
    E|----------------------------------------------------------------
    B|----------------------------------------------------------------
    G|----------------------------------------------------------------
    D|-----------3-3-3----5-5-5---------------------------------------
    A|--3-3-3-2--1-1-1-2--3-3-3-2--3-3-3-2--2-2-2-2-2-2-2-2-----------
    E|--1-1-1-0--------0--------0--1-1-1-0--0-0-0-0-0-0-0-0-----------
    
    
    chorus…
  • intro             verse
    e|--------------|-----------------------------|
    B|--------------|-----------------------------|
    G|--------------|-----------------------------|
    D|--7-----------|--7-7-7-------10-10-10-------|
    A|--5--2--3-----|--5-5-5-------…
  • intro
    E----------------------------------------------------------------
    B----------------------------------------------------------------
    G----------------------------------------------------------------
    D-----------------------------------------------5----------------
    A--2-------2-------2-------2------------------2-3-5-3------------
    E--0-0-0-0-0-0-0-0-0-0-0-0-0-0-0-0-0-0-0-0-0--0---3-1------------
    
    
    chorus
    E----------------------------------------------------------------
    B----------------------------------------------------------------
    G----------------------------------------------------------------
    D----------------------------------------------------------------
    A--2--5-8--3-5--2--5-8--3-5--------------------------------------
    E--0--3-6--1-3--0--3-6--1-3--------------------------------------
    
    
    verse…
  • intro/chorus
    G:-------------------------|
    D:-------------------------|
    A:-------------------------|
    E:--0-------02------024----|
    
    
    verse 1
    G:-----------------------|
    D:-----------------------|
    A:-----------------------|
    E:--000-200-24-024-------|
    
    
    bridge…
  • intro             verse
    E--------------|----0-----0-0---0-0----0--|
    B--------------|----0-----0-0---0-0----0--|
    G--------------|--------------------------|
    D--------------|--------------------------|
    A-----5--7-----|--2-----3------5----7-----|
    E--1--------5--|--0-----1------3----5-----|
    
    E-----------------------------------------|
    B-----------------------------------------|
    G-----------------------------------------|
    D--9-10--12--7----9--9-7-5--5-------------|
    A--7--8--10--5----7--7-5-3--3-5--9--7-----|
    E-----------------------------3--7--5-----|
    
    
    breakdown
    E----------------------------------------------------------------
    B----------------------------------------------------------------
    G----------------------------------------------------------------
    D----------------------------------------------------------------
    A-----10-----12-----10----9-10--------10-----12b----------9b-----
    E--0------8------0------8------10--0------8------3--5--7-------0-…
  • intro/chorus
    G:-------------------------------|
    D:-------------------------------|
    A:-0-0---5-5---3-3------------1--|
    E:-------------------3-3---013---|
     
    
    verse
    G:-------------------------------|
    D:-------------------------------|
    A:--555---------6----------------|
    E:-----333333-05-----------------|
    
    
    bridge
    G:-------------------------------|
    D:-------------------------------|
    A:-----------1-0-1-0-3-5---------|
    E:-5-55-555----------------------|…
Наверх