Аккорды «Iron Butterfly»

Iron Butterfly
Пионеры хард- и психоделического рока, прославившиеся хитом In-A-Gadda-Da-Vida, который многие источники называют «первым heavy metal треком». Группа существует по сей день, но троих из участников оригинального состава уже нет в живых. Группа образовалась в Сан-Диего, Калифорния, в 1966 году и свой первый альбом Heavy выпустила два года спустя, подписав контракт с ATCO (филиалом Atlantic Records). К этому времени Дуг Ингл и Рон Буши уже покинули состав: их заменили басист Ли Дорман и гитарист… Читать полностью... Пионеры хард- и психоделического рока, прославившиеся хитом In-A-Gadda-Da-Vida, который многие источники называют «первым heavy metal треком». Группа существует по сей день, но троих из участников оригинального состава уже нет в живых. Группа образовалась в Сан-Диего, Калифорния, в 1966 году и свой первый альбом Heavy выпустила два года спустя, подписав контракт с ATCO (филиалом Atlantic Records). К этому времени Дуг Ингл и Рон Буши уже покинули состав: их заменили басист Ли Дорман и гитарист Эрик Бранн, после чего Вайс и Пенрод ушли в Rhinoceros.Пока группа гастролировала (попеременно с The Doors, Jefferson Airplane, The Grateful Dead, Traffic, The Who,Cream) оставался в чартах «Биллборд» в течение года. 17-минутный In-A-Gadda-Da-Vida, заглавный трек второго альбома, стал международным мега-хитом. Принято считать, что Ингл создал эту вещь в таком состоянии, что даже не смог правильно написать название In The Garden Of Eden. Впрочем, есть все основания верить и другой версии, согласно которой автором риффа является Эрик Бранн, пришедший в состав в 17-летнем возрасте и к тому времени наркотиками и алкоголем еще не злоупотреблявший. Альбом In-A-Gadda-Da-Vida разошелся 8-миллионным тиражом за первый год после выпуска, установив таким образом рекорд, который до сих пор не побит, и перекрыв норматив «золотого» диска. По этому поводу и был учрежден «платиновый» диск, который Iron Butterfly и получили – также первыми в истории. Второй альбом группы продержался в американских чартах 140 недель, из них 81 неделю – в первой десятке. На сегодняшний день суммарный тираж пластинки составляет около 30 миллионов. Реакция критики и публики на третий альбом Ball (поднявшегося в США на вершину хит-парада) разочаровала музыкантов, и после выхода Metamorphosis (записанного без Бранна, но с поющим гитаристом Майком Пинейрой, который позже возглавил Ramatam и аккомпанировал Элису Куперу, и гитаристом Ларри «Носорогом» Райнхартом) Iron Butterfly объявили о распаде. Дорман и Райнхарт присоединились к Captain Beyond. В 1977 году Буши и Бранн вместе с приглашенными Филиппом Тейлором Крамером (в 1995 году он погиб при загадочных обстоятельствах) и Ховардом Рейтцем реформировали Iron Butterfly. В течение трех следующих лет в составе появлялись также вокалист Джимми Хендерсон и басист Иэн Эллис (экс- Van der Graaf Generator, The Koobas, Juicy Lucy), позже найденный мертвым в номере германского отеля. Деррил ДеЛоуч (52) скончался от рака 3 октября 2002 года. Эрик Бранн (52) умер от остановки сердца 31 июля 2003 года, через неделю после того, как выпустил сольный альбом. В 2004 году Буши и Дорман реформировали группу вновь. В новом составе с ними играют поющий гитарист Мартин Маринкович и клавишник Чарли Гершвиц. Скрыть...
Популярные аккорды Iron Butterfly:
алфавиту | просмотрам | случайно
  • Organ Intro arranged for guitar:
    
       Dm
    e:------------------------|-1--------1--5--------5-|-10------10-13-------13-|
    B:-------------3--------3-|-------3-----------6----|------10----------15----|
    G:-2--------2--------2----|----2-----------7-------|---10----------14-------|
    D:----0-h3--------3-------|------------------------|------------------------|
    A:------------------------|------------------------|------------------------|
    E:------------------------|------------------------|------------------------|
    
    e:-17-----15--h17--13--15-|------12---12-----------||
    B:------------------------|----------------15---13-||
    G:------------------------|------------------------||
    D:------------------------|------------------------||
    A:------------------------|------------------------||
    E:------------------------|------------------------||…
  • (main riff)
     E             D  C  A  B
    E----------------------------------------------------------
    B--------------7--5--2--4----------------------------------
    G--------------7--5--2--4----------------------------------
    D-------2---2--7--5--2--4----------------------------------
    A---------2----5--3--0--2----------------------------------
    E-0-2-3----------------------------------------------------
    
    
    We…
  • [opening riff (used throughout the song)]
    E---------------------------------------------------------
    B-------9-10----11-------9--------------8---8-8-9--8------
    G---------------------------------------------------------
    D----10------------10------10-------8-----8---8-10-8------
    A-10---------10-------10------10--6---6-------------------
    E---------------------------------------------------------
    
    E---------1----------4------8---8---------8---------------
    B---1---1-------------------6-6-6-6---------5-------------
    G-------------------------------------5-------------------
    D-3---3-----3--6-6-6---6-6----------5---5-----------------
    A---------------------------------------------------------
    E---------------------------------------------------------
    
    E-----5-------3--------3---5-----7------------------------
    B------------------------3---------8----------------------
    G---7---5---5---5----4------------------------------------
    D-7-------5--------5-------5--/9--------------------------
    A---------------------------------------------------------
    E---------------------------------------------------------
    
    
    (verse)
    E-8--8---X-----------10-----------------------------------
    B-8--8--10-10-----------11--------------------------------
    G-8--8--10-10-----7--------10----------10-----------------
    D-10-10-10-10---8-------------12----12--------------------
    A--------------------------------13-----------------------
    E---------------------------------------------------------
    
    E-------3-------3-----5---6---5-------3-------------------
    B---------------------------------------------------------
    G---5-------5-------5---5---5-----5-----------------------
    D-5---5---5---5---5-----------5-5---5-----5-5-5-7-8-7-----
    A----------------------------------------------------8----
    E---------------------------------------------------------
    
    (1:37)
    E--------------4-4-X-4-4-4-4-4----------------------------
    B-6-6-6-6--3-3-X-3-3-3-3-3----------------------------
    G-7-7-7-7--4-4-X-4-4-4-4-4----------------------------
    D-7-7-7-7--2-2-X-2-2-2-2-2----------------------------
    A-5-7-5-5---------------------------------------------
    E---------------------------------------------------------
    
    E-----3-----3-----5-----5-7-----7-------------------------
    B---------------------------------------------------------
    G---5---5-----5-----5-------4-----4---4-------------------
    D-5-------5-----5-----5-------5-----5---------------------
    A---------------------------------------------------------
    E---------------------------------------------------------
    
    (1:55)
    E---------6----------------------------5------------------
    B-----6-----6---6------5-----5---5------------------------
    G---8---------8------5---5---------5----------------------
    D-8-----8-------------------------------------------------
    A------------------3-------3---3-----3--------------------
    E---------------------------------------------------------
    
    E---------------5-----6----5-----3-5-6---8----------------
    B-----5-----5---------------------------------------------
    G---5---5---------5----5-----5---------------------------
    D----------------------------------5----------------------
    A-3-------3---3-----3----3-----3-------3------------------
    E---------------------------------------------------------
    
    
    [ending…
  • (main riff)
     Gm            Eb          Eb/C    F/D
    E---3-3--------3-------------3-3---------------------------
    B---3-3--------4-4-4---------4-4-----6-----6---------------
    G---3-3--------3-3-3---------3-3-----5-----5---------------
    D-5-5-5-3-1-3--5-5-5-7-5-7-5-5-5-5/7-7-5-7-7---------------
    A-5-5----------6-6-6-5-3-5-3-3-3-3/5-5-5-5-5---------------
    E-3-3------------------------------------------------------
    
    
    Fields…
Наверх