Аккорды «Isaac Albeniz»

Isaac Albeniz
Исаа́к Альбе́нис (исп. Isaac Albéniz; 29 мая 1860, Кампродон, Каталония — 18 мая 1909, Камбо-ле-Бен, французские Пиренеи) — испанский композитор и пианист, один из основоположников испанской национальной музыкальной школы. В четыре года юный Исаак впервые публично выступил в Барселоне, а уже в десять лет он разъезжал с сольными концертами по всей Испании. Обучался в Барселоне (Э. Компта — фортепиано), Брюсселе (Л. Брассен — фортепиано, Ф. Геварт — композиция), Будапеште (Ф. Лист — фортепиано в… Читать полностью... Исаа́к Альбе́нис (исп. Isaac Albéniz; 29 мая 1860, Кампродон, Каталония — 18 мая 1909, Камбо-ле-Бен, французские Пиренеи) — испанский композитор и пианист, один из основоположников испанской национальной музыкальной школы. В четыре года юный Исаак впервые публично выступил в Барселоне, а уже в десять лет он разъезжал с сольными концертами по всей Испании. Обучался в Барселоне (Э. Компта — фортепиано), Брюсселе (Л. Брассен — фортепиано, Ф. Геварт — композиция), Будапеште (Ф. Лист — фортепиано в 1878-79 гг.), Мадриде (Ф. Педрель — композиция). Концертировал во многих странах Европы, Северной и Южной Америки. Был близок к «поколению 98 года». В 1890 покидает Испанию и едет в Лондон, но в 1892 г. возвращается обратно. С 1894 жил в Париже. В 1897-1898 Исаак Альбенис занимался в «Схола канторум» (второй парижской консерватории) у крупнейших музыкантов Франции - Венсана д’Энди, Габриэля Форе. Знакомство с К. Дебюсси оказало влияние на его поздние сочинения. Дебюсси так оценил творчество Альбениса: «Никогда музыка не достигала такого многогранного, красочного восприятия; глаза закрываются как-будто от созерцания слишком большого количества картин». Поворотным моментом в творческом пути стало обращение Альбенис к испанскому фольклору — «золотым россыпям народного искусства», по словам композитора. В последние годы жизни он возглавлял новое направление испанской музыки – так называемое ренасимьенто. Фортепианные сочинения (всего около 300) — лучшая часть наследия композитора. В этих произведениях соединены традиции народных песенно-танцевальных жанров различных областей Испании (хота, сегидилья, сортсико, малагенья и др.) и музыкальной классики. Среди наиболее известных сочинений: «Испанская сюита» (1886), циклы пьес «Испания» (1890), «Два испанских танца», «Испанские напевы», «Иберия» (1905—09), «Наварра» (завершена французским композитором Деода де Севераком), симфоническая сюита «Каталония» (1899). Среди других сочинений Альбениса: сарсуэлы — «Святой Антоний» (1894, театр «Аполо», Мадрид), «Пепита Хименес» (1896, театр «Лисео», Барселона); опера «Генри Клиффорд» (1895, театр «Лисео», Барселона), романсы и др. Сесилия Саркози, вторая жена французского президента Николя Саркози, является правнучкой композитора. Скрыть...
Популярные аккорды Isaac Albeniz:
алфавиту | просмотрам | случайно
  • Строй: DADGBE
    E||--------------------|--------------------|
    B||-------------2------|-------------2------|
    G||----3--2-------3--2-|----3--2-------3--2-|
    D||----3-----2---------|----3-----2---------|
    A||-------0----------0-|-------0----------0-|
    D||-0------------------|-0------------------|
    
    E|--------------------|--------------------|-5-------0-3-5-8-6-|
    B|------------6-------|----------------6---|----3--2-----------|
    G|------------7-------|-------------7------|----2--3-----------|
    D|----7=====--7-------|----7=====----------|----3--5-----------|
    A|----8=====----------|----8=====0---------|-------------------|
    E|-0-----6/7----------|-0-----6------------|-0-----------------|
    
    E|-5-------0-3-5-8-6--|-5h6p5-------5-6-----------------|
    B|----3--2------------|-------8-6h8-----5h6p5-4-5h6-8-5-|
    G|----2--3------------|---------------------------------|
    D|----3--5------------|-------------7-------------------|
    A|--------------------|-----------------4-----------0---|
    E|-0------------------|-0-------------------------------|
    
    E|-----------------------|-5------0-3-5-8-6-|-5------0-3-5-8-6-|
    B|-6h8p6-5---5-----2-----|---3--2-----------|---3--2-----------|
    G|---------7---3=====3-2-|---2--3-----------|---2--3-----------|
    D|-------------5-2-------|---3--5-----------|---3--5-----------|
    A|-------------0-------0-|------------------|------------------|
    E|-0---------------------|-0----------------|-0----------------|
    
    E|-5=======3-------1-|------…
  • p - пулл
    h - хаммер
    s - слайд
    arm, <> - искусственный флажолет
    ==== - тянуть
    
    E|----------------------------|----------------------------|
    B|----0---0----0---0---0----0-|---0---0----0---0---0----0--|
    G|----------------------------|----------------------------|
    D|------9===10===7===9===-----|-----9===10===7===9===------|
    A|--7===-----------------10===|-7===-----------------10===-|
    E|----------------------------|----------------------------|
    
    E|----------------------------|----------------------------|
    B|----0---0----0---0---0----0-|---0---0----0---0---0----0--|
    G|----------------------------|----------------------------|
    D|------9===10===7===9===-----|-7===---------7===----------|
    A|--7===-----------------10===|-----9===10===----9===10===-|
    E|----------------------------|----------------------------|
    
    E|----------------------------|----------------------------|
    B|----0---0----0---0---0----0-|---0---0----0---0---0----0--|
    G|----------------------------|----------------------------|
    D|------9===10===7===9===-----|-----9===10===7===9===------|
    A|--7===-----------------10===|-7===-----------------10===-|
    E|----------------------------|----------------------------|
    
    E|----------------------------|----------------------------|
    B|----0---0----0---0---0----0-|---0---0----0---0----0---0--|
    G|----------------------------|----------------------------|
    D|------9===10===7===9===-----|-7===-----------------------|
    A|--7===-----------------10===|-----9===10===7===----------|
    E|----------------------------|------------------10===8===-|
    
    E|---------------------------|---------------------------|
    B|----0---0----0---0---0---0-|---0---0----0---0---0---0--|
    G|---------------------------|---------------------------|
    D|------9===10===7===9===----|-----9===10===7===9===-----|
    A|-----------------------9===|----------------------9===-|
    E|--7===---------------------|-7===----------------------|
    
    E|----------------------------|----------------------------|
    B|----0---0---0---0----0----0-|---0----0---0---0----0---0--|
    G|----------------------------|----------------------------|
    D|----------7===9===10===12===|-9===10===7===9===----------|
    A|------9===------------------|------------------10===9===-|
    E|--7===----------------------|----------------------------|
    
    E|---------------------------|---------------------------|
    B|----0---0----0---0---0---0-|---0---0----0---0---0---0--|
    G|---------------------------|---------------------------|
    D|------9===10===7===9===----|-----9===10===7===9===-----|
    A|-----------------------9===|----------------------9===-|
    E|--7===---------------------|-7===----------------------|
    
    E|----------------------------|--------------------------|
    B|----0---0---0----0----0---0-|----0---0---0---0---0---0-|
    G|----------------------------|--------------------------|
    D|------7===9===10===12===9===|-10===7===9===5===7===4---|
    A|----------------------------|--------------------------|
    E|--7===----------------------|--------------------------|
    
    E|------7-----7-----7-----7-----7-----7-|
    B|----0-----0-----0-----0-----0-----0---|
    G|--------4=====5=====------4=====------|
    D|--------------------7=====------5=====|
    A|--7-----------------------------------|
    E|--0===================================|
    
    E|-----7-----7-----7-----7-----7-----7--|
    B|---0-----0-----0-----0-----0-----0----|
    G|-------4=====5=====------4=====-------|
    D|-------------------7=====------5=====-|
    A|-7------------------------------------|
    E|-0====================================|
    
    E|------7-----7-----7-----7-----7-----7-|
    B|----0-----0-----0-----0-----0-----0---|
    G|--------4=====5=====------4=====------|
    D|--------------------7=====------5=====|
    A|--7-----------------------------------|
    E|--0===================================|
    
    E|-----7-----7-----7-----7-----7-----7--|
    B|---0-----0-----0-----0-----0-----0----|
    G|--------------------------------------|
    D|-7=====4=====5=====7=====4=====5=====-|
    A|--------------------------------------|
    E|--------------------------------------|
    
    E|------7-----7-----7-----7-----7-----7-|
    B|----0-----0-----0-----0-----0-----0---|
    G|--------4=====5=====------4=====------|
    D|--------------------7=====------5=====|
    A|--7-----------------------------------|
    E|--0===================================|
    
    E|-----7-----7-----7-----7-----7-----7--|
    B|---0-----0-----0-----0-----0-----0----|
    G|-------4=====5=====------4=====-------|
    D|-------------------7=====------5=====-|
    A|-7------------------------------------|
    E|-0====================================|
    
    E|------7-----7-----7-----7-----7-----7-|
    B|----0-----0-----0-----0-----0-----0---|
    G|--------4=====5=====------4=====------|
    D|--------------------7=====------5=====|
    A|--7-----------------------------------|
    E|--0===================================|
    
    E|-----7-----7-----7-----7-----7-----7--|
    B|---0-----0-----0-----0-----0-----0----|
    G|-------------0=====-------------------|
    D|-7=====4=====------------0=====-------|
    A|-------------------7=====-------------|
    E|-------------------------------8=====-|
    
    E|--7---------------------------------|
    B|--7----0-0----0-0---0-0---0-0---0-0-|
    G|--8---------------------------------|
    D|--9--9=====10=====7=====9=====------|
    A|--9---------------------------9=====|
    E|--7---------------------------------|
    
    E|-7----------------------------------|
    B|-7----0-0----0-0---0-0---0-0---0-0--|
    G|-8----------------------------------|
    D|-9--9=====10=====7=====9=====-------|
    A|-9---------------------------9=====-|
    E|-7----------------------------------|
    
    E|--7----------------------------------|
    B|--7----0-0---0-0---0-0----0-0----0-0-|
    G|--8----------------------------------|
    D|--9--------7=====9=====10=====12=====|
    A|--9--9=====--------------------------|
    E|--7----------------------------------|
    
    E|----------------------------------------|
    B|---0-0----0-0---0-0---0-0----0-0---0-0--|
    G|----------------------------------------|
    D|-9=====10=====7=====9=====--------------|
    A|--------------------------10=====9=====-|
    E|----------------------------------------|
    
    E|--7---------------------------------|
    B|--7----0-0----0-0---0-0---0-0---0-0-|
    G|--8---------------------------------|
    D|--9--9=====10=====7=====9=====------|
    A|--9---------------------------9=====|
    E|--7---------------------------------|
    
    E|-7----------------------------------|
    B|-7----0-0----0-0---0-0---0-0---0-0--|
    G|-8----------------------------------|
    D|-9--9=====10=====7=====9=====-------|
    A|-9---------------------------9=====-|
    E|-7----------------------------------|
    
    E|--7----------------------------------|
    B|--7----0-0---0-0---0-0----0-0----0-0-|
    G|--8----------------------------------|
    D|--9--------7=====9=====10=====12=====|
    A|--9--9=====--------------------------|
    E|--7----------------------------------|
    
    E|-----------------------------------------|
    B|---0-0----0-0----0-0---0-0----0-0---0-0--|
    G|-----------------------------------------|
    D|-9=====10=====-------9=====-------9=====-|
    A|--------------12=====------10=====-------|
    E|-----------------------------------------|
    
    E|--12-----------------------------------|
    B|---0----0-0----0-0----0-0---0-0----0-0-|
    G|---0-----------------------------------|
    D|---9--9=====10=====-------9=====-------|
    A|--10---------------12=====------10=====|
    E|---0-----------------------------------|
    
    E|-12------------------------------------|
    B|--0----0-0----0-0----0-0---0-0----0-0--|
    G|--0------------------------------------|
    D|--9--9=====10=====-------9=====--------|
    A|-10---------------12=====------10=====-|
    E|--0------------------------------------|
    
    E|--12-----------------------------------|
    B|---0----0-0----0-0----0-0---0-0----0-0-|
    G|---0-----------------------------------|
    D|---9--9=====10=====-------9=====-------|
    A|--10---------------12=====------10=====|
    E|---0-----------------------------------|
    
    E|------------------------------------------|
    B|----0-0---0-0----0-0----0-0---0-0----0-0--|
    G|------------------------------------------|
    D|------------------------------------------|
    A|-12=====9=====10=====12=====9=====10=====-|
    E|------------------------------------------|
    
    E|--12-------8------8-----8------8------8-|
    B|---8------------------------------------|
    G|---9-----9------9-----9------9------9---|
    D|---8--10=====12=====9=====10=====-------|
    A|--10-----------------------------10=====|
    E|---8------------------------------------|
    
    E|-12-------8------8-----8------8------8--|
    B|--8-------------------------------------|
    G|--9-----9------9-----9------9------9----|
    D|--8--10=====12=====9=====10=====--------|
    A|-10-----------------------------10=====-|
    E|--8-------------------------------------|
    
    E|--12-------8------8-----8------8------8-|
    B|---8------------------------------------|
    G|---9-----9------9-----9------9------9---|
    D|---8--10=====12=====9=====10=====-------|
    A|--10-----------------------------10=====|
    E|---8------------------------------------|
    
    E|-----8-----8------8-----8-----8-----8--|
    B|---7-----7------7-----7-----7-----7----|
    G|---------------------------------------|
    D|-7=====-------------7=====-------------|
    A|-------9=====10=====------7=====9=====-|
    E|---------------------------------------|
    
    E|--7------7------7-----7-----7-----7-|
    B|--7---------------------------------|
    G|--8----8------8-----8-----8-----8---|
    D|--9--9=====10=====8=====9=====------|
    A|--9---------------------------9=====|
    E|--7---------------------------------|
    
    E|--8-------8------8-----8------8------8--|
    B|--8-------------------------------------|
    G|--9-----9------9-----9------9------9----|
    D|--8--10=====12=====9=====10=====--------|
    A|-10-----------------------------10=====-|
    E|--8-------------------------------------|
    
    E|--7------7------7-----7-----7-----7-|
    B|--7---------------------------------|
    G|--8----8------8-----8-----8-----8---|
    D|--9--9=====10=====8=====9=====------|
    A|--9---------------------------9=====|
    E|--7---------------------------------|
    
    E|--8-------8------8-----8------8------8--|
    B|--8-------------------------------------|
    G|--9-----9------9-----9------9------9----|
    D|--8--10=====12=====9=====10=====--------|
    A|-10-----------------------------10=====-|
    E|--8-------------------------------------|
    
    E|--7------7-----7-----7-----7-----7-|
    B|--7----0-----0-----0-----0-----0---|
    G|--8--4=====5=====------4=====------|
    D|--9--------------7=====------5=====|
    A|--9--------------------------------|
    E|--7--------------------------------|
    
    E|-----7-----7-----7-----7-----7-----7--|
    B|---0-----0-----0-----0-----0-----0----|
    G|--------------------------------------|
    D|-7=====4=====5=====7=====4=====5=====-|
    A|--------------------------------------|
    E|--------------------------------------|
    
    E|------7-----7-----7-----7-----7-----7-|
    B|----0-----0-----0-----0-----0-----0---|
    G|--------------------------------------|
    D|--------4=====5=====7=====4=====5=====|
    A|--7=====------------------------------|
    E|--------------------------------------|
    
    E|-----7-----7-----7-----7-----7-----7--|
    B|---0-----0-----0-----0-----0-----0----|
    G|-------------0=====-------------------|
    D|-------4=====------------0=====-------|
    A|-7=====------------7=====-------------|
    E|-------------------------------8=====-|
    
    E|----------------------------|----------------------------|
    B|----0---0----0---0---0----0-|---0---0----0---0---0----0--|
    G|----------------------------|----------------------------|
    D|------9===10===7===9===-----|-7===---------7===----------|
    A|-----------------------10===|-----9===10===----9===10===-|
    E|--7===----------------------|----------------------------|
    
    E|----------------------------|----------------------------|
    B|----0---0----0---0---0----0-|---0---0----0---0----0---0--|
    G|----------------------------|----------------------------|
    D|---------------7===---------|----------------------------|
    A|--7===9===10===----9===10===|-7===9===10===7===----------|
    E|----------------------------|------------------10===8===-|
    
    E|---------------------------------------|
    B|------7-----7-----7------7-----7-----7-|
    G|----8-----8-----8------8-----8-----8---|
    D|--------------9=====10=====8=====9=====|
    A|--------9=====-------------------------|
    E|--7====--------------------------------|
    
    E|------------------------------------------|
    B|-----8------8------8------8-----8------8--|
    G|---9------9------9------9-----9------9----|
    D|--------------10=====12=====9=====10=====-|
    A|-------10=====----------------------------|
    E|-8=====-----------------------------------|
    
    E|---------------------------------------|
    B|------7-----7-----7------7-----7-----7-|
    G|----8-----8-----8------8-----8-----8---|
    D|--------------9=====10=====8=====9=====|
    A|--------9=====-------------------------|
    E|--7=====-------------------------------|
    
    E|------------------------------------------|
    B|-----8------8------8------8-----8------8--|
    G|---9------9------9------9-----9------9----|
    D|--------------10=====12=====9=====10=====-|
    A|-------10=====----------------------------|
    E|-8=====-----------------------------------|
    
    E|----------------------------------------|
    B|------7-----7-----7------7-----7------7-|
    G|----8-----8-----8------8-----8------8---|
    D|--------------9=====10=====8=====10=====|
    A|--------9=====--------------------------|
    E|--7=====--------------------------------|
    
    E|----------------------------------------|
    B|-----7------7-----7------7-----7-----7--|
    G|---8------8-----8------8-----8-----8----|
    D|-9=====10=====8=====10=====9=====-------|
    A|---------------------------------9=====-|
    E|----------------------------------------|
    
    E|--------------------|-----------------11--14-|-<19>--|-------|
    B|--------------------|-12----------12---------|-------|-------|
    G|-------------8--11--|---------11-------------|-------|-4====-|
    D|----------9---------|-----13-----------------|-------|-4====-|
    A|----6--9------------|------------------------|-------|-6====-|
    E|-7------------------|------------------------|-------|-7====-|
    
    E|--7--------5--7--|-10-----7p8h7--5--|-7--|-2================-|
    B|-----------------|------------------|----|-4----<16>---------|
    G|-----------------|------------------|----|-4================-|
    D|--9--------7--9--|-12-----9------7--|-9--|-4================-|
    A|-----------------|------------------|----|-2================-|
    E|-----------------|------------------|----|-------------------|
    
    E|--7--------5--7--|-10-----7p8h7--5--|-7--|-------------------|
    B|-----------------|------------------|----|-3================-|
    G|-----------------|------------------|----|-4----<16>---------|
    D|--9--------7--9--|-12-----9------7--|-9--|-5================-|
    A|-----------------|------------------|----|-5================-|
    E|-----------------|------------------|----|-3================-|
    
    E|--7-------6=====|====3p5h3--2--------|---|-2================-|
    B|----------------|--------------5-s8--|-7-|-4----<16>---------|
    G|----------------|--------------------|---|-4================-|
    D|--9-------8=====|====----5--4--2-s5--|-4-|-4================-|
    A|----------------|--------------------|---|-2================-|
    E|----------------|--------------------|---|-------------------|
    
    E|--7---------8--7--|-6--2--3p5h3--2-------|---------------|---|
    B|------------------|-----------------5-s8-|-7--------5----|-4-|
    G|------------------|----------------------|----------3----|-4-|
    D|--9--------10--9--|-8--4------5--4--2-s5-|-4--------4----|-4-|
    A|------------------|----------------------|----------3----|-2-|
    E|------------------|----------------------|---------------|---|
    
    E|---------|-----------------8-|---------------|---------------|
    B|------0--|----4p5h4-----4----|--------0------|--------0----0-|
    G|------7--|--------5--7--5----|--------7------|---------------|
    D|-5=======|-4=================|-4s5===========|--------8----7-|
    A|---------|-------------------|---------------|-6s9=========6-|
    E|---------|-------------------|---------------|---------------|
    
    E|-------------|-------------|----------------|------0---------|
    B|-----------0-|-----------0-|-----------0----|----------------|
    G|------0------|-------------|----------------|------3---------|
    D|-------------|------4------|------4---------|----------------|
    A|-7===========|-5===========|-3==============|----------------|
    E|-------------|-------------|----------------|-2=============-|
    
    E|----------|-------0===========|---------|-------0===========-|
    B|-----4====|-------------------|----4====|--------------------|
    G|-----4====|-------------------|----4====|--------------------|
    D|--------4-|-------4===========|-------4-|-------4===========-|
    A|-2========|-0--2--3--5p3-2--0-|-2=======|-0--2--3--5p3-2--0--|
    E|----------|-------------------|---------|--------------------|
    
    E|---------|----------------------|--------------|-------------|
    B|----4====|----------------------|--------------|-------------|
    G|----4====|----------------------|--------------|-------------|
    D|-------4-|-7--9--10--12p10-9--7-|-9--8-4-7-6-2-|-5-4-1-3-2---|
    A|-2=======|----------------------|--------------|-----------3-|
    E|---------|----------------------|--------------|-------------|
    
    E|---------------|-------5======-----|-------0-|-----5=====----|
    B|-------------0-|-------6======-----|-------9-|-----6=====----|
    G|-------------8-|-------------------|---------|---------------|
    D|---------------|-------------------|-------9-|---------------|
    A|--------9======|-------5--7p5------|----7====|-----5-7p5-----|
    E|-1s7===========|-7--8---------8--7-|-0=======|-7-8-------8-7-|
    
    E|-------0-|-----0----------|-----------------|-0--------------|
    B|-------9-|---4---0h1----0-|----0----0-----0-|---6--8---------|
    G|---------|-5---0=====2----|-0----------0----|-0====0-7h9-5-7-|
    D|-------9-|-2===------4====|-2====s4---------|------0=====4==-|
    A|----7====|-0===-----------|-------6===s7====|------------0==-|
    E|-0=======|----------------|-----------------|-8===s7=====----|
    
    E|---------------|-------5--8--6p8h6-5-|-8-5-------------------|
    B|---3----3----3-|-s6-8----------------|-----8p10h8--7--10-s13-|
    G|-4---s3---s4---|---------------------|-----------------------|
    D|-0====0====0===|---------------------|-----------------------|
    A|---------------|---------------------|-----------------------|
    E|-3===s2===s3===|---------------------|-----------------------|
    
    E|------------------|---------|---------------------|----------|
    B|------5--7p5------|-------0-|--------7============|-------0--|
    G|-5-7---------7--5-|-------8-|---------------------|-------8--|
    D|-4====-------5====|---------|--------8============|----------|
    A|-0===========7====|----9====|--------7--9p7-------|----9====-|
    E|-------------6====|-7=======|-8--10---------10--8-|-7=======-|
    
    E|-----------------|------|-----7-----7-----7-----7-----7-----7|
    B|------7==========|-----0|---8-----8-----8-----8-----8-----8--|
    G|-----------------|-----8|-------------------7=====-----------|
    D|------8==========|------|-------8=====9=====------8=====9====|
    A|------7-9p7------|---9==|10=====-----------------------------|
    E|-8-10-------10-8-|-7====|------------------------------------|
    
    E|---------------------------------------|
    B|-------7-----7-----7-----7-----7-----7-|
    G|-----7-----7-----7-----7-----7-----7---|
    D|---------------------7=====------------|
    A|---------8=====9=====------8=====9=====|
    E|--10=====------------------------------|
    
    E|-----0-----0------0-----0------0-----0--|
    B|----------------------------------------|
    G|----------------------------------------|
    D|---8-----8------8-----8------8-----8----|
    A|-------9=====10=====7=====--------------|
    E|-8=====-------------------10=====8=====-|
    
    E|--7--------5--7--|-10----7h8p7--5--|-7---|-2================-|
    B|-----------------|-----------------|-----|-4----<16>---------|
    G|-----------------|-----------------|-----|-4================-|
    D|--9--------7--9--|-12--------9--7--|-9---|-4================-|
    A|-----------------|-----------------|-----|-2================-|
    E|--7--------------|-----------------|-----|-------------------|
    
    E|--7--5--7--|-10--------7h8p7--5--|-7-----|------|
    B|-----------|---------------------|-----5-|-4----|
    G|-----------|---------------------|-----3-|-4---o|…
  • Темп   : 100
    Размер : 3/4
    
    E|-0-----------------|-0-----------------|-0--------------|
    B|-------------------|-------------------|----------------|
    G|---4-2-0-2---------|---4-2-0-2---------|---4-2-0-2------|
    D|--------------3----|--------------3----|--------------3-|
    A|---------3---------|---------3---------|---------3------|
    E|-0-----------------|-0-----------------|-0--------------|
    
    E|-0-----------------|-0---2--3---2---3--5---5---3--2-|
    B|-------------------|--------------------------------|
    G|---4-2-0-2---------|--------------------------------|
    D|--------------3----|-2----------1----------4--------|
    A|---------3---------|--------------------------------|
    E|-0-----------------|--------------------------------|
    
    E|-3---2--3---0------0---2---0--2-|----------0-----0--2--1--2-|
    B|-0----------1---4------1--------|-4--3--4--0--4-----1-------|
    G|--------------------------------|-2-------------------------|
    D|-2------------------------------|---------------------------|
    A|------------3----------0--------|-2-----------------0-------|
    E|--------------------------------|----------3----------------|
    
    E|---------------------------------|-0-----------|-0-----------|
    B|-0------0---5-----------4--------|-------------|-------------|
    G|-0---3---------4--2--0-----2-0---|---4-2-0-2---|---4-2-0-2---|
    D|-------------------------------4-|-2---------4-|-2---------4-|
    A|-2----------2-----------2--------|---------3---|---------3---|
    E|---------------------------------|-------------|-------------|
    
    E|-0------------|-0------------|-0---2--3---2---3--5--5---3--2-|
    B|--------------|--------------|-------------------------------|
    G|---4-2-0-2----|---4-2-0-2----|-------------------------------|
    D|-2----------4-|-2----------4-|-2----------1---------4--------|
    A|---------3----|---------3----|-------------------------------|
    E|--------------|--------------|-------------------------------|
    
    E|-3---2--3---0------0---2--1--2-|------------0------0--2--1-2-|
    B|-0----------1---4------1-------|-4---3--4---0---4-----1------|
    G|-------------------------------|-2---------------------------|
    D|-2-----------------------------|-----------------------------|
    A|------------3----------0-------|-2--------------------0------|
    E|-------------------------------|------------3----------------|
    
    E|---------------------------------|-0-----------|-0-----------|
    B|-0------0---5----------4---------|-------------|-------------|
    G|-0---3---------4--2-0-----2-0----|---4-2-0-2---|---4-2-0-2---|
    D|------------2------------------4-|-2---------4-|-2---------4-|
    A|-2---------------------2---------|---------3---|---------3---|
    E|---------------------------------|-------------|-------------|
    
    E|-0-----------------|-0-----------------|-7---7--7---|
    B|-------------------|-------------------|-8---8--8---|
    G|---4-2-0-2---------|---4-2-0-----------|------------|
    D|-2------------4----|-2-------7----4----|---4-5--4---|
    A|---------3---------|-------------------|-7--------7-|
    E|-------------------|---------8---------|------------|
    
    E|-7---------7---------7-----------|-7---7--7---|
    B|-10--------10--------10----------|-8---8--8---|
    G|---------------------------------|------------|
    D|--------------------------5------|-----5------|
    A|-9-------------------9-------9---|-7-9----9-7-|
    E|-----------7---------------------|------------|
    
    E|-7------7-----7--------|-7---7---7-|-10------8-|-7-----------|
    B|-10-----10----10-------|-8---8---8-|------7----|-----8---8---|
    G|-----------------------|-----------|---------7-|-0-6-7-------|
    D|------------------5----|-----5-7-9-|-0--5-6----|-------8-9---|
    A|-9------------9------9-|-7-9-------|-----------|-----------9-|
    E|--------7--------------|-----------|-----------|-------------|
    
    E|-----3---3---|-8---0--0---|-8----------|-7----------|
    B|-8-----------|------------|-----6--6---|------------|
    G|-------------|------------|------------|-----8--8---|
    D|-5-----------|-5-7-8--7-5-|-3-5-7--5-3-|-4-5-7--5-4-|
    A|-----5-------|------------|------------|------------|
    E|---9---7-5-3-|------------|------------|------------|
    
    E|-7---0--0---|---0--------|
    B|------------|-4---7--7-5-|
    G|------------|-4---4--4---|
    D|---4-5--4---|-4----------|
    A|-7--------7-|---7-6--6-7-|
    E|------------|------------|
    
    E|------0---|------------------|-----------------|-7---7--7---|
    B|-4--4---7-|------7-5----4----|------5-4--------|-8---8--8---|
    G|-4--4---4-|-6--8--------3--6-|-4--5--------5-4-|------------|
    D|-4--4-----|-8--4---6----4----|-7------4------7-|---4-5--4---|
    A|------7-6-|-7--------------7-|-6--7--------7-6-|-7--------7-|
    E|----------|------------------|-7---------------|------------|
    
    E|-7---------7---------7---------|-7---7--7---|
    B|-10--------10--------10--------|-8---8--8---|
    G|-------------------------------|------------|
    D|--------------------------5----|-----5------|
    A|-9-------------------9-------9-|-7-9----9-7-|
    E|-----------7-------------------|------------|
    
    E|-7------7-----7--------|-7---7---7-|-10------8-|-7-----------|
    B|-10-----10----10-------|-8---8---8-|------7----|-----8---8---|
    G|-----------------------|-----------|---------7-|-0-6-7-------|
    D|------------------5----|-----5-7-9-|----6-7----|-------8-9---|
    A|-9------------9------9-|-7-9-------|-7---------|-----------9-|
    E|--------7--------------|-----------|-----------|-------------|
    
    E|-----3---3---|-8---0--0---|-8----------|-7----------|
    B|-8-----------|------------|-----6--6---|------------|
    G|-------------|------------|------------|-----8--8---|
    D|-5-----------|-5-7-8--7-5-|-3-5-7--5-3-|-4-5-7--5-4-|
    A|-----5-------|------------|------------|------------|
    E|---9---7-5-3-|------------|------------|------------|
    
    E|-7---0--0---|-----5--5---|
    B|------------|-7-8-5--5-8-|
    G|------------|-5-0-5--5-0-|
    D|---4-5--4---|-7---4--4---|
    A|-7--------7-|------------|
    E|------------|------------|
    
    E|--------5-|-----5------|-5-----0-|-------------|-2-----------|
    B|-7--7-8-5-|-7-8-5--7-8-|-5-7-8-0-|-7-----------|-------------|
    G|-5--5-0-5-|-5-0-5--5---|-5-8---0-|---4-2-0-2---|---4-2-0-2---|
    D|-7--7---4-|-7---4--7---|-4-7-----|-----------4-|-----------4-|
    A|----------|------------|-------7-|-------------|-2-----------|
    E|----------|------------|---7-----|-7-----------|-------------|
    
    E|-2-----------|-2-----------|-----2-2---|------2-|-----2------|
    B|-------------|-------------|-4-5-0-0---|-4-4--0-|-4-5-0--4-5-|
    G|---4-2-0-2---|---4-2-0-2---|-4---------|-4-4----|-4------4---|
    D|-----------4-|-----------4-|-4-2-1-1-2-|-4-4--1-|-4-2-1--4-2-|
    A|-2-----------|-2-----------|-2---------|-2------|-2----------|
    E|-------------|-------------|-----------|--------|------------|
    
    E|-2------2-|-4-----------|-4-----------|-4--------------|
    B|-0--4-5-0-|---5-3-1-3-0-|---5-3-1-3-0-|---3-1-0-3----0-|
    G|----4-----|-------------|-------------|----------------|
    D|-1--4-2-1-|-------------|-------------|----------------|
    A|-2--------|-------------|-------------|----------------|
    E|----------|-0-----------|-0-----------|-0--------------|
    
    E|-4--------------|-5-7-8--8-7-|-5-5-7-8-|-5-7-8-5-7-|-8-5-7-8-|
    B|---3-1-0-3----0-|-5-0-5--5-0-|-5-5-0-5-|-5-0-5-5-0-|-5-5-0-5-|
    G|----------------|-5----------|-5-5-----|-5-----5---|---5-----|
    D|----------------|-----7--7---|-------7-|-----7-----|-7-----7-|
    A|----------------|------------|---------|-----------|---------|
    E|-0--------------|------------|---------|-----------|---------|
    
    E|-7---5--3---5--------2-|-0--------------|
    B|-----------------------|----------------|
    G|------------5----------|---4-2-0-2------|
    D|-5---------------------|--------------4-|
    A|-----------------------|---------3------|
    E|-----------------------|-2--------------|
    
    E|-7---5--3---5----2-|-0--------------|--------7-8-|-7--------|
    B|-------------------|----------------|-0---0--4---|-4--0-----|
    G|------------5------|---4-2-0-2------|---5----4---|-4----5-4-|
    D|-5-----------------|--------------4-|-----2------|----------|
    A|-------------------|----------------|-6----------|----6---6-|
    E|-------------------|-2--------------|-7---7------|----7---7-|
    
    E|-------------7-10-8-|-7--------------|-7---5--3---5--------2-|
    B|-0-----------5------|-0----0---------|-----------------------|
    G|-0-7-5--4-----------|-8------7-------|------------5----------|
    D|-------------9------|----------10--9-|-----------------------|
    A|-7------6-----------|------6-------6-|-9---------------------|
    E|-7------7-----------|------7-------7-|-----------------------|
    
    E|-0-----------------|-7---5--3---5--------2-|-0--------------|
    B|-------------------|-----------------------|----------------|
    G|---4-2-0-2---------|------------5----------|---4-2-0-2------|
    D|--------------4----|-4---------------------|--------------4-|
    A|---------3---------|-----------------------|---------3------|
    E|-2-----------------|-----------------------|-2--------------|
    
    E|-------------|-------------|-7--8-8-7-7--8-|
    B|-------0-0---|-------0-0---|-10-5-5---10-5-|
    G|-4-5-5---2-5-|-4-5-5---2-5-|-8------8-8----|
    D|-7-2-2-------|-7-2-2-----2-|-9--------9----|
    A|-6-----6-6-7-|-6-----6-6---|---------------|
    E|-7-------7---|-7-------7---|---------------|
    
    E|-7------------|-7---7--7---|
    B|-10-0---------|-8---8--8---|
    G|-8----5-6-7-8-|------------|
    D|-9--------0---|-----5------|
    A|------------6-|-7-9----9-7-|
    E|----7-8-9-----|------------|
    
    E|-7---------7---------7-----------|-7---7--7---|
    B|-10--------10--------10----------|-8---8--8---|
    G|---------------------------------|------------|
    D|--------------------------5------|-----5------|
    A|-9-------------------9-------9---|-7-9----9-7-|
    E|-----------7---------------------|------------|
    
    E|-7---7---7-------|-7---7---7--|-10------8--|-7-----------|
    B|-10--10--10------|-8---8---8--|------7-----|-----8---8---|
    G|-----------------|------------|---------7--|-0-6-7-------|
    D|------------5----|-----5-7-9--|-0--6-7-----|-------8-9---|
    A|-9-------9-----9-|-7-9--------|------------|-----------9-|
    E|-----7-----------|------------|------------|-------------|
    
    E|-----3---3---|-8---0--0---|-8----------|
    B|-8-----------|------------|-----6--6---|
    G|-------------|------------|------------|
    D|-5-----------|-5-7-8--7-5-|-3-5-7--5-3-|
    A|-----5-------|------------|------------|
    E|---9---7-5-3-|------------|------------|
    
    E|-7----------|-7---0--0---|---0--------|
    B|------------|------------|-4---7--7-5-|
    G|-----8--7---|------------|-4---4--4---|
    D|-4-5-7--5-4-|---4-5--4---|-4----------|
    A|------------|-7--------7-|---7-6--6-7-|
    E|------------|------------|------------|
    
    E|------0---|------------------|------------------|-7---7--7---|
    B|-4--4---7-|------7-5----4----|------5-4---------|-8---8--8---|
    G|-4--4---4-|-6--8--------3--6-|-4--5--------5--4-|------------|
    D|-4--4-----|-8--4---6----4----|-7------4-------7-|---4-5--4---|
    A|------7-6-|-7--------------7-|-6--7--------7--6-|-7--------7-|
    E|----------|------------------|-7----------------|------------|
    
    E|-7---------7---------7-----------|-7---7--7---|
    B|-10--------10--------10----------|-8---8--8---|
    G|---------------------------------|------------|
    D|--------------------------5------|-----5------|
    A|-9-------------------9-------9---|-7-9----9-7-|
    E|-----------7---------------------|------------|
    
    E|-7------7----7-------|-7---7---7--|-10------8--|-7-----------|
    B|-10-----10---10------|-8---8---8--|------7-----|-----8---8---|
    G|---------------------|------------|---------7--|-0-6-7-------|
    D|----------------5----|-----5-7-9--|-0--6-7-----|-------8-9---|
    A|-9-----------9-----9-|-7-9--------|------------|-----------9-|
    E|--------7------------|------------|------------|-------------|
    
    E|-----3---3---|-8---0--0---|-8----------|
    B|-8-----------|------------|-----6--6---|
    G|-------------|------------|------------|
    D|-5-----------|-5-7-8--7-5-|-3-5-7--5-3-|
    A|-----5-------|------------|------------|
    E|---9---7-5-3-|------------|------------|
    
    E|-7----------|-7---0--0---|-----5--7---|
    B|------------|------------|-7-8-5--5-8-|
    G|-----8--8---|------------|-5-0-5--5-0-|
    D|-4-5-7--5-4-|---4-5--4---|-7---4--4---|
    A|------------|-7--------7-|------------|
    E|------------|------------|------------|
    
    E|--------5--|-5-7-8--8-7-|-5--5-7-8--|
    B|-7--7-8-5--|-7-0-7--7-0-|-7--8-0-7--|
    G|-5--5-0-5--|-5---9--9---|-5--5---9--|
    D|-7--7---4--|-----7--7---|--------7--|
    A|-----------|------------|-----------|
    E|-----------|------------|-----------|
    
    E|-------------|-5---8-7-14-12-|
    B|-0-------7-5-|-0-8-5---0-----|
    G|-0-5-5-4-4---|---------0-----|
    D|-----5---5---|---------------|
    A|-7---7-------|---------------|
    E|-7---7---7---|-7---7---------|
    
    E|-0-15-12-------0-|-7------------|
    B|-0-------12------|-7-10---0-----|
    G|------------12---|-8----7-------|
    D|------14---------|-9------------|
    A|---------14-10-7-|-9--------9---|
    E|-----------------|-7----------7-|
    
    E|-0----7-11-9----|-0-------------|
    B|-9-10-0----9-12-|-9-10-12--9-10-|
    G|------9----9----|------9---9----|
    D|-9---------9----|-9----9---9----|
    A|----------------|---------------|
    E|-0--------------|-0-------------|
    
    E|------7--------|----------7----7------|
    B|-12-------12-0-|-12-------------------|
    G|--------8------|----------------------|
    D|----7-9---11---|-------7--9--------7--|
    A|-11------------|----11---------11-----|
    E|-0-------------|-0--------------------|
    
    E|-0----7-11-9----|-0-------------|
    B|-9-10-0----9-12-|-9-10-12--9-10-|
    G|------9----9----|------9---9----|
    D|-9---------9----|-9----9---9----|
    A|----------------|---------------|
    E|-0--------------|-0-------------|
    
    E|------7--------|----------7----7------|
    B|-12-------12-0-|-12-------------------|
    G|--------8------|----------------------|
    D|----7-9---11---|-------7--9--------7--|
    A|-11------------|----11---------11-----|
    E|-0-------------|-0--------------------|
    
    E|-------9-11-16-14-|----------------|
    B|-10-12-0----0-----|-14-16-12-------|
    G|-8-----8----------|-14-------------|
    D|-9----------------|-13----13----13-|
    A|------------------|----------11-12-|
    E|-0----------------|-0-----14-------|
    
    E|-------0-----14-12-|-0-----0-------|
    B|-------12-16-0-----|-14-16-12---5--|
    G|-13-14-------------|-13----13------|
    D|-14----------------|------------6--|
    A|-14----14----------|----------9----|
    E|-0-----16----------|-0-----12------|
    
    E|---0-2-4-5-4-|-2-------2---|
    B|-4---0---0---|-0-5-4-5-0-4-|
    G|-4-----------|-----4-------|
    D|-4-----2-2-2-|---2-4-2---4-|
    A|---7-6-------|-6-------6---|
    E|-2-----------|-------------|
    
    E|-------------------|------------|
    B|-2--4-7-5----2--4--|-0-2-4--2-0-|
    G|-3-----------3-----|-----2--2---|
    D|-2--4---6----2--4--|-7-2-4--2---|
    A|-------------------|-6--------6-|
    E|-2-----------------|-7----------|
    
    E|-4----7-11-9-7-|-0----7--0----|
    B|-5-10-5----9---|-9-10-0--9-10-|
    G|-4---------9---|------9-------|
    D|------9----9---|-9-------9----|
    A|---------------|--------------|
    E|-0-------------|-0------------|
    
    E|-7------7-----7-----|-7------7----7-----|
    B|--------------------|-------------------|
    G|-----------8--6-----|-------------------|
    D|---6-7--9--------9--|---6-7--9----6--7--|
    A|--------------------|-------------------|
    E|-0------------------|-0-----------------|
    
    E|-0----7-11-9-7-|-0----7--0----|
    B|-9-10-0----9---|-9-10-0--9-10-|
    G|------9----9---|------9-------|
    D|-9---------9---|-9-------9----|
    A|---------------|--------------|
    E|-0-------------|-0------------|
    
    E|-7------7-----7-----|-7------7----7-----|
    B|--------------------|-------------------|
    G|-----------8--6-----|-------------------|
    D|---6-7--9--------9--|---6-7--9----6-----|
    A|--------------------|----------------7--|
    E|-0------------------|-0-----------------|
    
    E|-8-10-12-15-13-12-|-8-10-8--------|
    B|------------------|---------------|
    G|-0----------0-----|-0--------7----|
    D|------10----------|------10----10-|
    A|------------------|---------------|
    E|-6----------------|-6-------------|
    
    E|--------8------|-8-------------------|
    B|-6-8-10---10-8-|-6--8--6-------------|
    G|---------------|---------------------|
    D|-7---10---10---|---------7-10-----7--|
    A|-0-------------|-0-----0-------8-----|
    E|----------8----|---------------------|
    
    E|-0----------7--0------|-7------7-0----|
    B|---------9-----10--9--|---10-9---10-9-|
    G|-----11--9--8--6------|-8----9-8-6----|
    D|---6-7---9---------9--|---11-9------9-|
    A|----------------------|---------------|
    E|-7--------------------|-7-------------|
    
    E|------7-------------|-0-----------|
    B|-7--9---10----7--9--|-0-----------|
    G|-8--7---8-----8-----|-------------|
    D|-7------9-----7--9--|-6-7-6-------|
    A|----8---9-----------|-7-----9-7---|
    E|-7------------------|-----------7-|
    
    E|-------------|-0---6--11-6-|-7-9-6-7------|
    B|-0---7--11-9-|-7-9---------|---------9-11-|
    G|-8-9-8--8----|-----9--9----|-8---8---8----|
    D|-----9--9----|-8-----------|--------------|
    A|-----9--9----|-----9--9----|-----9---9----|
    E|-7-----------|-7-----------|-7------------|
    
    E|-6-7-0-6-0--|-------------|-0---6--11----|
    B|-----9---7--|-0---7--11-9-|-7-9-------10-|
    G|-8----------|-8-9-8--8----|-----9--9-----|
    D|---------8--|-----9--9----|-8------------|
    A|-9-------9--|-----9--9----|-----9--9-----|
    E|------------|-7-----------|-7------------|
    
    E|-7-9-6-7------|-6-7-0-6-0-|
    B|---------9-11-|-----9---7-|
    G|-8---8---8----|-8---------|
    D|--------------|---------8-|
    A|-----9---9----|-9-------9-|
    E|-7------------|-----------|
    
    E|-7---0--6---|-7---0--6---|-7-9-------0-|
    B|-0-7-9----7-|-0-7-9----7-|-0---7--10---|
    G|-8------9---|-8------9---|---6---------|
    D|-----8--8---|-----8--8---|--------7----|
    A|------------|------------|-----9-----7-|
    E|-7---7--7---|-7---7--7---|-------------|
    
    E|------------|-0----7-11-9-7-|
    B|-9---7----0-|-9-10-0----0---|
    G|---8----6---|------9----9---|
    D|-6----------|-9-------------|
    A|---6-9------|---------------|
    E|--------9-7-|-0-------------|
    
    E|-0----7--0----|-7---7---7---|-7---7--7---|
    B|-9-10-0--9-10-|-------------|------------|
    G|------9-------|-------8-6---|------------|
    D|-9-------9----|---7-9-----9-|-6-7-9--6-7-|
    A|--------------|-------------|------------|
    E|-0------------|-0-----------|-0----------|
    
    E|-0----7-11-9-7-|-0----7--0----|
    B|-9-10-0----9---|-9-10-0--9-10-|
    G|------9----9---|------9-------|
    D|-9---------9---|-9-------9----|
    A|---------------|--------------|
    E|-0-------------|-0------------|
    
    E|-7------7-----7-----|-7---7--7---|
    B|--------------------|------------|
    G|-----------8--6-----|------------|
    D|---6-7--9--------9--|-6-7-9--6---|
    A|--------------------|----------7-|
    E|-0------------------|-0----------|
    
    E|-8-10-12-15-13-12-|-8-10-8-------|
    B|------------------|--------------|
    G|-0----------0-----|-0-------7----|
    D|------10----------|------10---10-|
    A|------------------|--------------|
    E|-6----------------|-6------------|
    
    E|--------8------|-8------------|
    B|-6-8-10---10-8-|-6-8-6--------|
    G|---------------|--------------|
    D|-7---10---10---|-----7-10---7-|
    A|-0-------------|-----0----8---|
    E|----------8----|-8------------|
    
    E|-0---------7--8-|-7--12-8--10-7-8--|
    B|-0-0--8-10------|-------10----8----|
    G|-0-11---8--9--9-|-9--9-----7--0----|
    D|------9-------7-|-------7-------10-|
    A|---7--7-9--10---|-10-11----9-------|
    E|-7--------------|---------------12-|
    
    E|----7--0-0-0--0--|-7--7--7--|-7---7---7---|
    B|-10-0--8-9-10-11-|-8--8--7--|-8---8---8---|
    G|-11--------------|-9--9--8--|-------------|
    D|---------0-11-10-|----------|-------------|
    A|-9-----7---------|----------|-7-9-10--9-7-|
    E|----11-----9--8--|-7--7--7--|-------------|
    
    E|-7---------7---------7----------|
    B|-10--------10--------10---------|
    G|--------------------------------|
    D|--------------------------------|
    A|-9-------------------9----10--9-|
    E|-----------7--------------------|
    
    E|-7---7---7---|-7---------7---------7------------|
    B|-8---8---8---|-10--------10--------10-----------|
    G|-------------|----------------------------------|
    D|-------------|----------------------------------|
    A|-7-9-10--9-7-|-9-------------------9----10--9---|
    E|-------------|-----------7----------------------|
    
    E|-7---7----7--|-10-------8-|
    B|-8---8----8--|-------7----|
    G|-------------|----------7-|
    D|--------7-9--|-0-----7----|
    A|-7-9-10------|----11------|
    E|-------------|------------|
    
    E|-7-------------|------3---3---|-8---0--0---|
    B|------8----8---|-8------------|------------|
    G|-0-------------|--------------|------------|
    D|---11-12-8-9---|--------------|-5-7-8--7-5-|
    A|-------------9-|-10-4-5-------|------------|
    E|---------------|--------7-5-3-|------------|
    
    E|-8----------|-7----------|
    B|-----6--6---|------------|
    G|------------|-----8--8---|
    D|-3-5-7--5-3-|-4-5-7--5-4-|
    A|------------|------------|
    E|------------|------------|
    
    E|-7---0-0---|---0-------|-----0---|
    B|-----------|-4---7-7-5-|-4-4---7-|
    G|-----------|-4---4-4---|-4-4---4-|
    D|---4-5-4---|-4---------|-4-4-----|
    A|-7-------7-|---7-6-6-7-|-----7-6-|
    E|-----------|-----------|---------|
    
    E|---------------|------------------|
    B|-----7-5--4----|------5-4---------|
    G|-6-8------3--6-|-4--5--------5--4-|
    D|-8-4---6--4----|-7------4-------7-|
    A|-7-----------7-|-6--7--------7--6-|
    E|---------------|-7----------------|
    
    E|-7---7--7---|-7---------7---------7-----------|-7---7--7---|
    B|-8---8--8---|-10--------10--------10----------|-8---8--8---|
    G|------------|---------------------------------|------------|
    D|---4-5--4---|--------------------------5------|-----5------|
    A|-7--------7-|-9-------------------9-------9---|-7-9----9---|
    E|------------|-----------7---------------------|----------7-|
    
    E|-7-----7-----7--------|-7---7---7-|-10------8--|-7-----------|
    B|-10----10----10-------|-8---8---8-|------7-----|-----8---8---|
    G|----------------------|-----------|---------7--|-0-6-7-------|
    D|-----------------5----|-----5-7-9-|-0--6-7-----|-------8-9---|
    A|-9-----------9------9-|-7-9-------|------------|-----------9-|
    E|-------7--------------|-----------|------------|-------------|
    
    E|-----3---3---|-----5--5---|--------5--|-5-7-8--8-7-|
    B|-8-----------|-7-8-5--5-8-|-7--7-8-5--|-7-0-7--7-0-|
    G|-------------|-5-0-5--5-0-|-5--5-0-5--|-5---9--9---|
    D|-5-----------|-7---4--4---|-7--7---4--|-----7--7---|
    A|-----5-------|------------|-----------|------------|
    E|---9---7-5-3-|------------|-----------|------------|
    
    E|-5--5-7-8--|-------------|
    B|-7--7-0-7--|-0-------7-5-|
    G|-5--5---9--|-0-5-5-4-0---|
    D|--------7--|-----5-------|
    A|-----------|-7---7---7---|
    E|-----------|-7---7---7---|
    
    E|-5---8-7-14-12-|-0-15-12------0-|----------|-7---7---7---|
    B|-0-8-5---0-----|-0-------12-8---|-8-----7--|-8---8---8---|
    G|---------------|------------0---|-8-----7--|-------------|
    D|---------------|------14--------|-7--9--7--|-------------|
    A|---------------|---------14---7-|-------9--|-7-9-10--9-7-|
    E|-7---7---------|----------------|-7--------|-------------|
    
    E|-7---------7---------7------------|-7---7---7---|
    B|-10--------10--------10-----------|-8---8---8---|
    G|----------------------------------|-------------|
    D|----------------------------------|-------------|
    A|-9-------------------9----10--9---|-7-9-10--9-7-|
    E|-----------7----------------------|-------------|
    
    E|-7---------7---------7----------|-0-------0--------0---------|
    B|-10--------10--------10---------|-0-------0--------0---------|
    G|--------------------------------|-0-------0--------0---------|
    D|--------------------------------|----------------------------|
    A|-9-------------------9----10--9-|-7--------------------------|
    E|-----------7--------------------|------------------8---10--8-|
    
    E|-0--------0--------0-----------|-0--------0--------0---------|
    B|-0--------0--------0-----------|-0--------0--------0---------|
    G|-0--------0--------0-----------|-0--------0--------0---------|
    D|-------------------------------|-----------------------------|
    A|-------------------9---10--9---|-7---------------------------|
    E|-7-----------------------------|-------------------8---10--8-|
    
    E|-0--------0--------0--------|-0-|-0----|--------|--------|---|
    B|-0--------0--------0--------|-0-|-0----|-4------|-4------|-4-|
    G|-0--------0--------0--------|-0-|-0----|-0------|--------|---|
    D|----------------------------|---|------|--------|-4------|-5-|
    A|----------------------------|---|-3----|-2------|-3------|---|
    E|-7-----------------2---3--2-|-0-|------|--------|--------|-3-|
    
    E|--------|--------|--------|-----------0-|-4-7-12-16-0-0-|-12-|
    B|--------|-4------|--------|---------0---|---------------|-0--|
    G|--------|--------|--------|-------1-----|---------------|-12-|
    D|-----4--|-5------|-4------|-----2-------|---------------|-14-|
    A|--------|-2------|--------|---2---------|---------------|-10-|
    E|--------|--------|--------|-0-----------|---------------|-0--|…
  • Обозначения:
    
       p - пулл
       h - хаммер
       s - слайд
    ==== - тянуть
    
    E|--7-------7-------7-------|-7-------7-------7-------|
    B|--9-------9-------9-------|-9-------9-------9-------|
    G|--9-----------------------|-----8---6-------6---8---|
    D|--9-----------------------|-------------9-----------|
    A|--7-----------------------|-------------------------|
    E|--0-----------------------|-------------------------|
    
    E|--7--------7-------7------|-7-------7-------7-------|
    B|--9--------9-------9------|-9-------9-------9-------|
    G|--6-h8-p6-----------------|------------------------o|
    D|-----------9==============|========================o|
    A|--------------------------|-------------------------|
    E|--0-----------------------|-------------------------|
    
    E|--------------------------|-5-----------------------|
    B|--4-------4-------4-------|-4---------------7-------|
    G|--4-------4-------4---4---|-6----------s8-------8---|
    D|--4---6---7-------7-------|-------------------------|
    A|--------------------------|-------------------------|
    E|--0-----------------------|-------------------------|
    
    E|--------------------7-----|--7--------7--------7----|
    B|-------------------10-----|-10-------10-------10----|
    G|--6-h8-p6-----------8-----|--8--------8--------8----|
    D|-----------9==============|=========================|
    A|--------------------------|-------------------------|
    E|--------------------------|-------------------------|
    
    E|--------------------------|-5-----------------------|
    B|--4-------4-------4-------|-4-----------9---7-------|
    G|--4-------4-------4---4---|-6-------8-----------8---|
    D|--4---6---7-------7-------|-------------------------|
    A|--------------------------|-------------------------|
    E|--0-----------------------|-------------------------|
    
    E|--------------------7-----|--7--------7--------7----|
    B|-------------------10-----|-10-------10-------10----|
    G|--6-h8-p6-----------8-----|--8--------8--------8----|
    D|-----------9==============|=========================|
    A|--------------------------|-------------------------|
    E|--------------------------|-------------------------|
    
    E|--7-------7-------7-------|-7-------7-------7-------|
    B|--9-------9-------9-------|-9-------9-------9-------|
    G|--9-----------------------|-----8---6-------6---8---|
    D|--9-----------------------|-------------9-----------|
    A|--7-----------------------|-------------------------|
    E|--0-----------------------|-------------------------|
    
    E|--7--------7-------7------|-7-------7-------7-------|
    B|--9--------9-------9------|-9-------9-------9-------|
    G|--6-h8-p6-----------------|-------------------------|
    D|-----------9==============|=========================|
    A|--------------------------|-------------------------|
    E|--0-----------------------|-------------------------|
    
    E|---7-------7-------7------|-7--------7-------7------|
    B|---8-------8-------8------|-8--------8-------8------|
    G|---7----------------------|-----11---9---7---9---11-|
    D|---9----------------------|-------------------------|
    A|--10----------------------|-------------------------|
    E|--------------------------|-------------------------|
    
    E|--7---------7-------7-----|-7-------7-------7-------|
    B|--8---------8-------8-----|-8-------8-------8-------|
    G|--9-h11-p9--7=============|=========================|
    D|--------------------------|-------------------------|
    A|--------------------------|-------------------------|
    E|--------------------------|-------------------------|
    
    E|------------------5-------|-------------------------|
    B|--4-------4-------4-------|-------------------------|
    G|--4-------4-------4---6---|-s11---------------8-----|
    D|--4---6---7---------------|-------------------------|
    A|--------------------------|-------------------------|
    E|--0-----------------------|-------------------------|
    
    E|--7--------7-------7------|--9--------9--------9----|
    B|--9--------9-------9------|--9--------9--------9----|
    G|--6-h8-p6-----------------|-10-------10-------10----|
    D|-----------9--------------|-------------------11----|
    A|--------------------------|----------11-------------|
    E|--0-----------------------|--9----------------------|
    
    E|--5-------5-------5-------|-5--------5--------------|
    B|------4---5-------2-------|-2-h4-p2--0--------------|
    G|--6-----------------------|-------------------------|
    D|--4-------------------4---|-------------------------|
    A|--------------------------|-2----------------2------|
    E|--------------------------|-------------------------|
    
    E|--4---2---0===============|=========================|
    B|--0-------0-------0-------|-0-------0-------0-------|
    G|----------1-------1-------|-1-------1-------1-------|
    D|--------------------------|-------------------------|
    A|--------------------------|-------------------------|
    E|--0-----------------------|-------------------------|
    
    E|--------------------------|-------------------------|
    B|--9---7---5===============|=========================|
    G|--5-------5-------5-------|-5-------5-------5-------|
    D|----------6-------6-------|-6-------6-------6-------|
    A|--------------------------|-------------------------|
    E|--0-----------------------|-------------------------|
    
    E|--4---2---0===============|=========================|
    B|--0-------0-------0-------|-0-------0-------0-------|
    G|----------1-------1-------|-1-------1-------1-------|
    D|--------------------------|-------------------------|
    A|--------------------------|-------------------------|
    E|--0-----------------------|-------------------------|
    
    E|--------------------------|-------------------------|
    B|--9---7---5===============|=========================|
    G|--5-------5-------5-------|-5-------5-------5-------|
    D|----------6-------6-------|-6-------6-------6-------|
    A|--------------------------|-------------------------|
    E|--0-----------------------|-------------------------|
    
    E|--4---2---0===============|=================--------||
    B|--0-------0-------0-------|-0-----------------------||
    G|----------1-------1-------|-1-----------------------||
    D|--------------------------|-------------------------||
    A|--------------------------|-----------------2-------||
    E|--0-----------------------|-------------------------||
    
    
    Meno…
  • Строй: DADGBE
    Размер: 3/4
    
    E|---|---|---|
    B|---|---|---|
    G|---|---|---|
    D|---|---|---|
    A|-3-|-3-|-3-|
    D|-3-|-3-|-3-|
    dolce
    
    E|---|-3-|---------3-|
    B|---|-3-|-3-------3-|
    G|---|-3-|-3-------3-|
    D|---|---|-3---------|
    A|-3-|-3-|-----------|
    D|-3-|-3-|-----------|
    
    E|-6-------5-------3-|-5-------1-|-----------------3-|
    B|-3-------5-------3-|-5-------3-|-3-------5-------3-|
    G|---------5-------3-|-5-------2-|-2-------3-------3-|
    D|-------------------|-----------|-3-------5---------|
    A|-3-----------------|-----------|-------------------|
    D|-3-----------------|-----------|-------------------|
    
    E|-5-|-3-|-3-|-3-|---------3-|-6-------4-------3-|
    B|-5-|-3-|-3-|-2-|-2-------2-|---------5-------2-|
    G|-5-|-3-|-3-|-3-|-3-------3-|-3-------5-------3-|
    D|---|---|---|---|-3---------|-------------------|
    A|---|-3-|-3-|-3-|-----------|-------------------|
    D|---|-3-|-3-|-3-|-----------|-------------------|
    
    E|-4---------|-----------------3-|-4-|-3-|-3-|
    B|-5-------6-|-2-------5-------2-|-5-|-2-|-2-|
    G|-5-------5-|-1-------3-------3-|-5-|-3-|-3-|
    D|---------6-|-3-------5---------|---|---|---|
    A|-----------|-------------------|---|-3-|-3-|
    D|-----------|-------------------|---|-3-|-3-|
    
    E|-0----------|-----------|
    B|------------|-----------|
    G|-9----------|-----------|
    D|-8-------11-|-10------8-|
    A|-10---------|-----------|
    D|------------|-----------|
    
    E|-------------------|-4-----------------|-4-|
    B|-6-----------------|-6-----------------|-3-|
    G|-5-----------------|-5-----------------|-1-|
    D|-6-------5---------|-------------------|---|
    A|-----------------8-|-6-------4-------3-|-1-|
    D|-------------------|-------------------|---|
    
    E|-4-|-4-|-4-|-5-|-5-|-10--------------8--|
    B|-3-|-3-|-3-|-6-|-6-|-10--------------10-|
    G|-1-|-1-|-1-|-7-|-7-|-10--------------9--|
    D|---|---|---|-7-|-7-|-12--------------7--|
    A|-1-|-1-|-1-|-0-|-0-|--------------------|
    D|---|---|---|---|---|--------------------|
    
    E|-10------8--|-10------12------13-|-10------8-------10-|
    B|-10------10-|-10------13------10-|-11------10------11-|
    G|-10------9--|-10------12------10-|-10------10------10-|
    D|-12------7--|-12------10---------|-8---------------8--|
    A|------------|--------------------|---------8----------|
    D|------------|--------------------|--------------------|
    
    E|-11--------------10-|-8-------10------8--|------------------|
    B|-----------------11-|-10------11------10-|-11------------10-|
    G|-12--------------10-|-10--------------10-|-9-------------9--|
    D|-----------------8--|---------8----------|-12------------11-|
    A|--------------------|-8---------------8--|-10------------12-|
    D|-13-----------------|--------------------|------------------|
    
    E|------------|---|-13--------------12-|-13------12------10-|
    B|-8-------10-|10-|-10--------------13-|-10------13------10-|
    G|-9-------9--|9--|-10--------------12-|-10------12------10-|
    D|-12------11-|11-|-----------------10-|---------10------12-|
    A|-13------12-|12-|--------------------|--------------------|
    D|------------|---|--------------------|--------------------|
    
    E|-8-------------10-|-8-------6-------5-|-3---------------1-|
    B|-10------------10-|-10------6-------6-|-3---------------3-|
    G|-9-------------10-|-9-------7-------5-|-3---------------2-|
    D|-7-------------12-|-7-------8---------|-5---------------0-|
    A|------------------|-----------------8-|-------------------|
    D|------------------|-------------------|-------------------|
    
    E|-3-------1-------0-|-0---------------0-|-0-|0--|
    B|-3-------3-------3-|-2-----------------|-2-|2--|
    G|-3-------2-------1-|-----------------7-|---|---|
    D|-5-------0---------|-2---------------8-|-2-|2--|
    A|-----------------1-|-0---------------7-|-0-|0--|
    D|-------------------|-----------------6-|---|---|
    
    E|-13°---------12°-|-13°-----12°-----10°-|-8°--------------10°-|
    B|-10--------------|-10--------------10--|-----------------10--|
    G|-10----------12--|-10------12------10--|-9---------------10--|
    D|-------------10--|---------10----------|-7-------------------|
    A|-----------------|---------------------|---------------------|
    D|-----------------|---------------------|---------------------|
    
    E|-8°------6°------5°|-3°--------------1°-|-3°------1°------0°-|
    B|-------------------|--------------------|--------------------|
    G|-9-------7-------5-|-3---------------2--|-3-------2-------1--|
    D|-7-------8---------|-5---------------0--|-5-------0----------|
    A|-----------------8-|--------------------|-----------------1--|
    D|-------------------|--------------------|--------------------|
    
    E|5°--------------5°-|--------5-----------1-|---1-----0--------|
    B|3---------------2--|------6-----6-------3-|---3-----3------2-|
    G|2---------------0--|----7-------7-------2-|---1-----1------0-|
    D|-------------------|--7---------7---------|------------------|
    A|0------------------|5---------------4---3-|2-----1-----0-----|
    D|-------------------|----------------------|------------------|
    
    E|--------5---------1-|---1-----0-------|1-------3-------5-----|
    B|------6----6------3-|---3-----3-----2-|----3-------3-------6-|
    G|----7------7------2-|---1-----1-----0-|----2-------2-------7-|
    D|--7--------7--------|-----------------|0---------------------|
    A|5-------------4---3-|2-----1-----0----|----------------------|
    D|--------------------|-----------------|----------------------|
    
    E|12----------------|10------8-------10-----|5-----------------|
    B|---10----10----10-|----10------10------10-|---8-----8------8-|
    G|---12----12----12-|----10------10------10-|---6-----6------6-|
    D|------------------|0----------------------|------7-----------|
    A|------12----0-----|----------------0------|7-----------0-----|
    D|11----------------|-----------------------|------------------|
    
    E|--------------------5---|----3-------5-------3-|
    B|------------6-------6---|----5---------------5-|
    G|----7-------------------|----------------------|
    D|----7-------7-----------|----------------------|
    A|8-------7-------5-------|4-----------2---4-----|
    D|------------------------|----------------------|
    
    E|----1-------5-------0---|----------------------|
    B|------------6-------3---|----2-------2---------|
    G|----2---------------1---|----2-------3---2---0-|
    D|0-----------------------|--------5-------3---2-|
    A|--------3-------1-------|0---------------------|
    D|------------------------|----------------------|
    
    E|1-------3------5----|12---------------|10------8------10-----|
    B|----3-------3-----3-|----10---10---10-|----11-----11------11-|
    G|----2-------2-----2-|----9----9----9--|----10-----10------10-|
    D|0-------------------|-----------------|----------------------|
    A|--------------------|-----------------|----------------------|
    D|--------------------|10---------------|8---------------------|
    
    E|--------------------|3-----5-----3----|8-------6-------5-----|
    B|----6-------6-----6-|---2-----2-----2-|----6-------6-------6-|
    G|----5-------5-----5-|3----------------|--------5-------8-----|
    D|--------------------|-----------------|7---------------------|
    A|--------------------|-----------------|----------------------|
    D|3-------------------|-----------------|----------------------|
    
    E|---0-7----12---|12------10-----8-----|13------12------8------|
    B|9-------5------|------------9-----10-|----12------10------10-|
    G|-------------9-|----9-------------9--|----13--------------9--|
    D|12-------------|10------9------7-----|12------10------7------|
    A|---------------|---------------------|-----------------------|
    D|---------------|---------------------|-----------------------|
    
    E|10------12------8-----|8-----------7-----|5------------------|
    B|----9-------10------7-|----9---9-------9-|----5-----5------5-|
    G|----9-----------------|----7---7-------7-|----6-----6------6-|
    D|9-------10------------|------------------|-------------------|
    A|----------------6-----|7-----------------|0------------------|
    D|----------------------|------------------|-------------------|
    
    E|----0-------0-------0-|
    B|8-------10------11----|
    G|----------------------|
    D|5-------7-------8-----|
    A|0---------------------|
    D|----------------------|
    
    E|12-----------------|10------8-------10------|5---------------|
    B|----11----11----11-|----11------11------11--|----5----5----5-|
    G|----12----12----12-|----12------12------12--|----6----6----6-|
    D|14-----------------|------------------------|7---------------|
    A|0------------------|------------------------|----------------|
    D|-------------------|------------------------|----------------|
    
    E|----0------0------0-|13----------12-----|10------8----10-----|
    B|8------10-----11----|----11--11------11-|----11----11-----11-|
    G|--------------------|----12--12------12-|----12----12-----12-|
    D|5------7------8-----|-------------------|--------------------|
    A|0-------------------|0------------------|--------------------|
    D|--------------------|-------------------|--------------------|
    
    E|5---------------------|-----------5-----8-|---------------8--|
    B|----5-------5-------5-|----6------6-----6-|---5-----8-----8--|
    G|----6-------6-------6-|----5------------5-|---5-----5--------|
    D|7---------------------|7-------5--7--5--7-|5--7--5--------10-|
    A|----------------------|-----------8-------|---------8--7-----|
    D|----------------------|-------------------|------------------|
    
    E|----1-------6-------1-|---0-----5-----3---|1---0-----------5-|
    B|----------------------|-------------------|-------3--5--6----|
    G|----3-------3-------3-|---2-----2-----2---|2-----------------|
    D|0-----------0---2---0-|---0---------------|0-----------------|
    A|--------4-------------|4-----4--2--0------|-------------4--3-|
    D|----------------------|-------------------|------------------|
    
    E|0---1---0-----------0-|-------------------|------------------|
    B|3-----------3---2-----|3--5--3----------3-|2-----------------|
    G|1---------------0-----|3---------5---3----|2-----------------|
    D|----------------------|3------------------|5-----------------|
    A|2-------1-------0-----|-------------------|0---1--0-----0----|
    D|----------------------|6------------------|----------6-----2-|
    
    E|0-----------------------|0-------1-------3-----|
    B|----3-3-3b--3-------3---|------3-----3-------3-|
    G|----3-3-3---3-------3---|------------3-------3-|
    D|----2b2b2---2b------2---|----2-------2-------2-|
    A|0---------------0-------|0---------------0-----|
    D|------------------------|----------------------|
    
    E|0---------------1-------|----------------------|
    B|----3-3-3b--3-------3---|3-------2-------------|
    G|----3-3-3---3-------3---|------2-----2-------2-|
    D|----2b2b2---2b------2---|------------2-------2-|
    A|0---------------0-------|0---4-----------0-----|
    D|------------------------|----------------------|
    
    E|1-------0-------1-----|0-------0-------0------|0--------0----|
    B|1-------1-------1-----|1-------3-------2------|3--------3----|
    G|2-------0-------2-----|0-------1-------2------|3--------3----|
    D|----------------------|2---2---2---2---2---2--|2--------2----|
    A|----3-------3-------3-|3b--3b--1b--1b--0b--0b-|--------------|
    D|3---------------------|-----------------------|6--6--6-----6-|
    
    E|0-------------------5°-|----------------------|--------------|
    B|2----------------------|----------------------|------0---2---|
    G|-----------------------|--------0-------2-----|2-----0---0---|
    D|------------7{---------|4---------------------|5-------------|
    A|0---0------------------|0---0-------0-------0-|4--4----0---0-|
    D|-----------------------|0---------------------|2-------------|
    
    E|2-------3-------5-----|----------------------|---------------|
    B|3---------------------|2-------3-------5-----|---------------|
    G|2-------0-------2-----|0---------------------|2---------2----|
    D|0---------------------|--------0-------2-----|4--------------|
    A|----0-------0-------0-|----0-------0-------0-|0--0---0-----0-|
    D|4---------------------|2---------------------|0--------------|
    
    E|----------------------|----------------------|---------------|
    B|----------------------|--------0-------1-----|0--------------|
    G|2---------------2-----|2-------0-------0-----|0---------2----|
    D|4---------------------|5---------------------|2--------------|
    A|3---0-------0-------0-|4---4-------0-------0-|4--0---0-----0-|
    D|1---------------------|2---------------------|---------------|
    
    E|2-------3-------5-----|
    B|3---------------------|
    G|2-------0-------2-----|
    D|4---------------------|
    A|0---0-------0-------0-|
    D|0---------------------|
    
    E|5-------7------9----|10----12----14---|9-------10------12----|
    B|2-------------------|10---------------|----------------------|
    G|2-------4------6----|------9-----11---|12--------------9-----|
    D|5-------------------|12---------------|11------12------------|
    A|0---0-------0-----0-|9--0-----0-----0-|7---0-------0-------0-|
    D|2-------------------|-----------------|----------------------|
    
    E|-------------------|5-----------------|5-------7-------9-----|
    B|10-----------------|4-----------------|2-------0-------------|
    G|11-----------------|-------------2----|2---------------6-----|
    D|-------------7-----|4-----------------|5---------------------|
    A|0---0----0-------0-|0---0----0------0-|4---0-------0-------0-|
    D|0------------------|1-----------------|2---------------------|
    
    E|7--------5-----|0---------------------|----------------------|
    B|0--------------|----1-1-1b--1-------1-|--------1-------3-----|
    G|6--------2-----|----0-0-0---0-------0-|------0-----0-------0-|
    D|5--------------|----2-2-2---2-------2-|------------2-------2-|
    A|7--0--0------0-|----0b0b0---0b--0-----|----0-----------0-----|
    D|---------------|0---------------------|0---------------------|
    
    E|0------2------3-----|0-------------------|-------------------|
    B|-----1-----1------1-|---1-1-1b--1------1-|4------------------|
    G|-----------0------0-|---0-0-0---0------0-|----5-5-5---5----5-|
    D|---2-------2------2-|---2-2-2---2------2-|----5-5-5---5----5-|
    A|--------------0-----|---0b0b0---0b--0----|----6-6-6---6--0---|
    D|0-------------------|0-------------------|0------------------|
    
    E|----------------------|-------------------|------------------|
    B|--------1-------3-----|4------6-----8-----|3-----------------|
    G|------0-----0-------0-|-----5----0------0-|---2------2-----2-|
    D|------------1-------1-|-------------------|----------4-----4-|
    A|----0-----------0-----|---6---------0-----|-----5-5-----3----|
    D|0---------------------|0------------------|0-----------------|
    
    E|--------0-------3-------|--------5-------------|
    B|3-------0-------3-------|7-------3-------1-----|
    G|0-------0-------0-------|5-------5-------------|
    D|0---0-------0-------0---|7---0-------0---4---0-|
    A|2-----------------------|0---------------------|
    D|------------------------|----------------0-----|
    
    E|----------------7-------|8-------9-------12----|
    B|0-------6-------6-------|7---------------------|
    G|4-------4-------4-------|5-------6-------9-----|
    D|3---0-------0-------0---|----0-------0-------0-|
    A|------------------------|0---------------------|
    D|6-----------------------|----------------------|
    
    E|10------15------12------|14------12------10------|
    B|10----------------------|13----------------------|
    G|0-------12------9-------|--------9-------7-------|
    D|----0-------0-------0---|----0-------0-------0---|
    A|------------------------|0-----------------------|
    D|9-----------------------|------------------------|
    
    E|7-------8-------9-----|9-------12------10------|
    B|6---------------------|7-----------------------|
    G|4-------5-------6-----|6-------9-------7-------|
    D|----0-------0-------0-|----0-------0-------0---|
    A|----------------------|0-----------------------|
    E|6---------------------|------------------------|
    
    E|101010108-8-8-8-6-6-6-6-|101010108-8-8-8-6-6-6-6-|
    B|6-6-6-6-6-6-6-6-6-6-6-6-|6-6-6-6-6-6-6-6-6-6-6-6-|
    G|7-7-7-7-7-7-7-7-7-7-7-7-|7-7-7-7-7-7-7-7-7-7-7-7-|
    D|6-6-6-6-6-6-6-6-6-6-6-6-|6-6-6-6-6-6-6-6-6-6-6-6-|
    A|8-8-8-8-8-8-8-8-8-8-8-8-|8-8-8-8-8-8-8-8-8-8-8-8-|
    D|6-6-6-6-6-6-6-6-6-6-6-6-|6-6-6-6-6-6-6-6-6-6-6-6-|
    
    E|101010108-8-8-8-6-6-6-6-|------------------------|
    B|6-6-6-6-6-6-6-6-6-6-6-6-|3-3-3-3-----------------|
    G|7-7-7-7-7-7-7-7-7-7-7-7-|3-3-3-3-5-5-5-5-3-3-3-3-|
    D|6-6-6-6-6-6-6-6-6-6-6-6-|3-3-3-3-3-3-3-3-3-3-3-3-|
    A|8-8-8-8-8-8-8-8-8-8-8-8-|5-5-5-5-5-5-5-5-5-5-5-5-|
    D|6-6-6-6-6-6-6-6-6-6-6-6-|6-6-6-6-6-6-6-6-6-6-6-6-|
    
    E|------------------------|------------------------|
    B|3-3-3-3-----------------|3-3-3-3-----------------|
    G|3-3-3-3-5-5-5-5-3-3-3-3-|3-3-3-3-5-5-5-5-3-3-3-3-|
    D|3-3-3-3-3-3-3-3-3-3-3-3-|3-3-3-3-3-3-3-3-3-3-3-3-|
    A|5-5-5-5-5-5-5-5-5-5-5-5-|5-5-5-5-5-5-5-5-5-5-5-5-|
    E|6-6-6-6-6-6-6-6-6-6-6-6-|6-6-6-6-6-6-6-6-6-6-6-6-|
    
    E|------------------------|----------------------|
    B|3-3-3-3-----------------|----------------------|
    G|3-3-3-3-5-5-5-5-3-3-3-3-|--------0-------1-----|
    D|3-3-3-3-3-3-3-3-3-3-3-3-|4---------------------|
    A|5-5-5-5-5-5-5-5-5-5-5-5-|5---0-------0-------0-|
    D|6-6-6-6-6-6-6-6-6-6-6-6-|7---------------------|
    
    E|------------------------|----------------------|
    B|------------------------|--------0-------1-----|
    G|2---------------2-------|2-------0-------0-----|
    D|4---------------4-------|5---------------------|
    A|3---0-------0-------0---|----0-------0-------0-|
    D|------------------------|----------------------|
    
    E|------------------------|2-------3-------4-----|
    B|2-------5-------8-------|3---------------------|
    G|0-------0-------0-------|--------0-------1-----|
    D|2-------2-------5-------|4-------2-------0-----|
    A|----0-------0-------0---|----0-------0-------0-|
    D|------------------------|----------------------|
    
    E|5----------5----|5-------7-------8----|9-------12------17----|
    B|4----------4----|2--------------------|8---------------------|
    G|5----------5----|0-------4-------5----|6-------9-------14----|
    D|4----------4----|---------------------|----------------------|
    A|----0---0-----0-|----0-------0------0-|----0-------0-------0-|
    D|----------------|---------------------|----------------------|
    
    E|13--------------12-|13------12------10---|8---------------10-|
    B|10-----------------|10--------------10---|10--------------10-|
    G|10--------------12-|10------12------10---|9---------------10-|
    D|----------------10-|--------10------12---|7---------------12-|
    A|-------------------|---------------------|-------------------|
    D|-------------------|---------------------|-------------------|
    
    E|8-------6-------5-|3---------------1------|3-------1-------0-|
    B|10------6-------6-|3---------------3------|3-------3-------3-|
    G|9-------7-------5-|3---------------2------|3-------2-------1-|
    D|7-------8---------|5---------------0------|5-------0---------|
    A|----------------8-|-----------------------|----------------1-|
    D|------------------|-----------------------|------------------|
    
    E|5---------5-|1-------3-------5-------|12---------------------|
    B|6---------2-|----3-------3-------6---|----10------10------10-|
    G|7---------0-|----2-------2-------7---|----12------12------12-|
    D|7-----------|0-----------------------|-----------------------|
    A|0-----------|----------------0-------|--------12------0------|
    D|------------|------------------------|11---------------------|
    
    E|10------8-------10------|5---------------------|
    B|----10------10------10--|----8-------8-------8-|
    G|----10------10------10--|----6-------6-------6-|
    D|0-----------------------|--------7-------------|
    A|----------------0-------|7---------------0-----|
    D|------------------------|----------------------|
    
    E|------------1-------5---|----3-------5-------3-|
    B|----3---------------6---|----5---------------5-|
    G|----2-------2-----------|----------------------|
    D|3-------2-------0-------|----------------------|
    A|------------------------|4-----------2---4-----|
    D|------------------------|----------------------|
    
    E|----1-------5-------0-|--------------------|1-----3-----5----|
    B|------------6-------3-|---2------2---------|---3-----3-----3-|
    G|----2---------------1-|---2------3---2---0-|---2-----2-----2-|
    D|0---------------------|------5-------3---2-|0----------------|
    A|--------3-------1-----|0-------------------|-----------------|
    D|----------------------|--------------------|-----------------|
    
    E|12---------------|10----8------10-----|5---------------------|
    B|----10---10---10-|---11----11------11-|----6-------6-------6-|
    G|----9----9----9--|---10----10------10-|----5-------5-------5-|
    D|-----------------|--------------------|----------------------|
    A|-----------------|--------------------|----------------------|
    D|10---------------|8-------------------|3---------------------|
    
    E|-------------------|8------------0-----|1--3---5-------------|
    B|10-----8-----10----|----11--10---3-----|---3-------3-------2-|
    G|----6-----6------5-|-------------1-----|---2-------2-------0-|
    D|8------------------|11------10---------|---------------------|
    A|-------------------|8-------8----3---1-|0--------------------|
    D|-------------------|8------------------|---------------3---2-|
    
    E|----------------1---5-|0------1-----3----|0------------------|
    B|------------3---3---6-|----2-----2-----2-|-------------------|
    G|--------2---2---------|----3-----3-----3-|----6----6-------6-|
    D|----3---3-------------|0-----------------|8--------7---5-----|
    A|----5-----------------|------------------|-------------------|
    D|0---------------------|------------------|-------------------|
    
    E|------------------------|----0-------0-------0-|
    B|10------8-------6-------|11------10------8-----|
    G|----7-------6-------7---|----------------------|
    D|----------------0-------|--------7-------8-----|
    A|8-------7---------------|10--------------------|
    D|------------------------|----------------------|
    
    E|------------------------|----0-----------------|
    B|----6---------------6---|------------1---------|
    G|----7-------10------7---|----7-------3---0-----|
    D|7-------8-------7-------|6-------------------7-|
    A|------------------------|--------0-------------|
    D|------------------------|----------------------|
    
    E|----0--1--3--5--3-|-1--3--0--1----|-0-------1-------3-----|
    B|-3--2--3--5--6--5-|-3--5--2--3--3-|-----2-------2-------2-|
    G|-2--0--2--3--7--3-|-2--3--0--2--2-|-----3-------3-------3-|
    D|-3----------------|-------------3-|-0---------------------|
    A|------------------|---------------|-----------------------|
    D|-0----------------|---------------|-----------------------|
    
    E|-0--------------|--------1-------5-----|-----0--0---------|
    B|----2--2------2-|3-------------------6-|-10---------3-----|
    G|-3-----2--0-----|----2-------2---------|----------------1-|
    D|----------------|3-------2-------0-----|-----7--7-------3-|
    A|----------------|----------------------|------------1-----|
    D|----------------|----------------------|-10---------------|
    
    E|---------------------|---------------------|--------5------1-|
    B|3-------5-------6----|10------8-------2----|------6---6----3-|
    G|2-------3-------5----|9-------7-------2--0-|----7-----7----2-|
    D|3-------5-------7----|10------8-------3--2-|--7-------7------|
    A|0---0-------0------0-|----0-------0------0-|5-----------4--3-|
    D|---------------------|---------------------|-----------------|
    
    E|----1-------0--------|--------5----------1-|---1-----0-------|
    B|----3-------3------2-|------6----6-------3-|---3-----3-----2-|
    G|----1-------1------0-|----7------7-------2-|---1-----1-----0-|
    D|---------------------|--7--------7---------|-----------------|
    A|2-------1------0-----|5--------------4---3-|2-----1-----0----|
    D|---------------------|---------------------|-----------------|
    
    E|------------------------|----0---1---3---5---3-|
    B|------------------------|----2---3---5---6---5-|
    G|------------0---2---0---|----0---2---3---7---3-|
    D|----2---3---2---3---2---|3---------------------|
    A|----4---5---------------|5---------------------|
    D|0-----------------------|----------------------|
    
    E|1---0°--1°--3°--5°--3°--|1°-|
    B|3---2---3---5---6---5---|3--|
    G|2-----------------------|---|
    D|------------------------|---|
    A|------------------------|---|
    D|------------------------|---|
    
    E|5-----------------------|10-|
    B|2-----------------------|10-|
    G|0-----------------------|10-|
    D|------------------------|---|
    A|0-----------------------|---|
    D|------------------------|0--|…
  • Строй: EADGBE
    
                1                2                  3
    E||-------------------|------------------|---------------------|
    B||-------------0-----|------------------|---------------------|
    G||-------0--2--------|----0-------------|---------------------|
    D||----2--------------|-------2----------|---0--3--2--0---3--2-|
    A||-3-----------------|----------3-------|---------------------|
    E||-------------------|------------------|---------------------|…
  • h  = хаммер
    p  = пулл
    /  = слайд вверх
    ⁄  = слайд вниз
    ^  = флажолет
    --3-- = триоль
    
    строй: DGDGBE
    
     |--1---------2---------3---------|--1-----------2-----------3-|
     1                                        %
    E|--7-----7-----7-----7-----8-----8----|-----------------------|
    B|--8-----8-p7--------------------7----|-----------------------|
    G|--7----------10-----9-p8--7--------7-|--повторить…
Наверх