Аккорды «Jack Johnson»

Jack Johnson
Джек Джонсон — гаваец, профессиональный серфер — чемпион (жил на пляже и катался с младенчества), а также режиссер, снявший два фильма о серфинге (самый известный и всячески награжденный — “September Sessions”). В какой-то момент этот успешный спортсмен оставил доску себе для развлечения, а основной профессией сделал музыку — запел под гитару незатейливый безмятежный фолк. Мелодии Джонсона ускользают из памяти, как шум океана, но точно так же они притягивают слух и не надоедают. К тому же точно… Читать полностью... Джек Джонсон — гаваец, профессиональный серфер — чемпион (жил на пляже и катался с младенчества), а также режиссер, снявший два фильма о серфинге (самый известный и всячески награжденный — “September Sessions”). В какой-то момент этот успешный спортсмен оставил доску себе для развлечения, а основной профессией сделал музыку — запел под гитару незатейливый безмятежный фолк. Мелодии Джонсона ускользают из памяти, как шум океана, но точно так же они притягивают слух и не надоедают. К тому же точно и красиво сыграны: на гитаре тут не тренькают, а очень прилично играют, а фолк иногда сменяется акустическим фанком или босса-новой. Первый альбом Джонсона стал платиновым, второй — золотым, третий — “In Between Dreams” — достиг второго места чарта Billboard. Непонятно, что тому причиной: безупречные простота и красота, идеологическая платформа (на балинезийском серферском курорте теплый голос Джонсона разносился из всех музыкальных лавок, как у нас Земфира) или располагающий образ певца: крупное тело и огромная челюсть сочетаются с мягким выражением лица, детской улыбкой, сердечным голосом простодушного ангела. Интервью Джек Джонсон дает примерно такие: «Ну да, я всю жизнь жил у океана и мечтал стать про-серфером… Мне бы хотелось написать какую-нибудь злую песню, но не выходит — я ведь не такой. Чем новый альбом отличается от предыдущих? Да, наверное, ничем». Скрыть...
Популярные аккорды Jack Johnson:
алфавиту | просмотрам | случайно
  • Intro--Dm/F/a#/F--2x
    
    
    Dm                     F
    I know she said it's alright
    A#                         F
    But you can make it up next time
    Dm                         F
    I know she said knows it's not right
    A#…
  • Intro and Chorus
    e-----0---------------------------------------------------------|
    B-----0h2-0-----------------------------------------------------|
    G--1------------------------------------------------------------|
    D-----------------4h6p4-----------7-----------------------------|
    A---------------6------0----7h9---9p7------9--------------------|
    E-0----------4--------5-----------7-7h9---7--------------------|
    
    
    Verse
    e---------------------------------------------------------------|
    G---------------------------------------------------------------|
    B-----4-------------4-------------------------------------------|
    D---2--4h6p6-----------6---------------7---------7--------------|
    A----------------6--------0------7h9------0--9----7-------------|
    E-0------------4----------5------------5------------------------|
    -
    
    
    Solo
    e---------------------------------------------------------------|
    B--2/5--------7-9--------------7-9------------------------------|
    G-------6---------9----/6-9--------9----------------------------|
    D---------6-----------------6-----------------------------------|
    A-------------------------------------9-11-9-7------------------|
    E---------------------------------------------------------------|
    
    
    Lyrics:
    hermit…
  • Tuning: Standard
    
    Capo 2  - chords relative to capo
    		
    Chords: Bm,  E,  G (355433), F#    
    (2 = alternate, no pinky fret - i.e. G2 = 353433)
    
    Intro: Bm2,  F#2,  G2,  E2
    
    
    Verse:
    
    Bm2
    sweeping the floors, open up the doors,…
  • Slow Sweet Intro:
    
     F#           C# Am/Bbm           C#  Bb/B             Bbm G#m
    -2-2-2h4p2---2-4--5/6-6-6h9p6---6--9---6/7-7-7h9p7---7-6----4---
    -2---------2---6--5/6---------7----9---6/7---------7---6----4---
    -3-------------6--5/6--------------10--7/8-------------6----4---
    -4-------------6--7/8--------------11--8/9-------------8----6---
    -4-------------4--7/8--------------11--8/9-------------8----6---
    -2----------------5/6--------------9---6/7-------------6----4---
    
    
    Then…
  • Tuning: E A D G B e
    
    
    (D)
    And by the way
    You know that hope will make you strange
    Make you blink, make you blink
    Make you sink
                      (G)
    It will make you afraid of change
    Enough to blame the box with the view…
  • Ama7
    
    e--5--------------
    b--5--------------
    g--5--------------
    d--6--------------
    a--7--------------
    E--5--------------
    
    
    A              Ama7       E   F#m
    Well how many times must we go through this
    A                  Ama7…
  • BASS INTRO
    |--------------------------|
    |.---------9---7~-7-7-----.|
    |.-7~-7-7----7--------5-6-.| repeat until chorus
    |--------------------------|
    
    
    GUITAR CHORDS
    Em*   X  7  5  7  X  X
    Em    X  7  9  9  8  7
    A     5  7…
  • Intro
    =====
    e|-----3---2h3-------||
    B|-------3-------3---||
    D|-----------------0-||
    G|-------------0-----||x4
    A|---2---------------||
    E|-3-----------------||
    
    
    Verse (Main) Progression
    ========================
    
    G Em C C/B…
  • INTRO
    -------------------------------------------------------------------------
    -------------------------------------------------------------------------
    -6~-6-6-6/9-9-9-11~-11-11-114-4-4-4/13-13-13-9-9-9-9/11-11-11-11--4-4-4-
    -------------------------------------------------------------------------
    -4~-4-4-4/7-7-7--9~--9--9--92-2-2-2/11-11-11-7-7-7-7/9---9--9--9--2-2-2-
    -------------------------------------------------------------------------
    
    
    VERSE
    
    guitar…
  • Intro/Chorus
    G|-------------------|
    D|-------------------|
    A|-2*-2--------------|
    E|------4*-4-3*-3-2*-|
    
    
    Verse
    G|------------------|
    D|------------------|
    A|-2*-4^-5^-6^------|
    E|-------------4*-4-|
    
    
    Fill
    G|-------------------|
    D|-------------------|
    A|-4*-4------4*-4----|
    E|------2*-2------2^-|
    
    
    Pre-Chorus:
    G|-------------------|
    D|-------------------|
    A|-4*-4-4-4-6*-6-6-6-|
    E|-------------------|
    
    
    Pro-Chorus:
    G|--------------|
    D|--------------|
    A|-2*-2---------|
    E|------4*-4-3*-|
    
    
    Outro
    G|----|
    D|----|
    A|-2*-|
    E|----|
    
    
    Order:
    Intro…
  • Am   X 0 2 2 1 0
    C    X 3 2 0 1 0
    G    3 2 0 0 3 3
    F    1 3 3 2 1 1
    D    X 5 7 7 6 5
    C/B  X 2 2 0 1 0
    
    
    Am C G - repeat
    
    
    Am
    I got a faulty parachute
            C          G
    I got a stranger's friend
       Am
    An exciting change…
  • A                        E
    they say taylor was a good girl, never one to be late
     Fm#              D             A     E  Fm#  D
    complain, express ideas in her brain
    A                           E
    working on the night shift,…
  • Intro 
             D                     A
       V     V     V ^   V ^   V ^ V ^ !
    e|-------------------x-x---------5-x--|
    B|-------------------x-x---------5-x--|
    G|-7-----7-----7-7---x-x---------6-x--|
    D|-7h9---7h9---7-7---x-x---7-x-7-7-x--|
    A|-------------------x-x---7-x-7-7-x--|
    E|-------------------x-x---5-x-5-5-x--|…
  • D                  F#m              c            Em
    e---------------------------------------------------------------
    b--7---7---7----------10----10----10---5---5---5-------8--8--8--
    g---7---7---------------11----11--------5---5-----------9--9----
    D----7---7-----------------11----11------5---5-----------9--9---
    a-5----------------5/9----------------3------------3/7----------
    E---------------------------------------------------------------
    
    There's…
  • INTRO
    --------7---5p3-2-3-0-------------------
    --3p2p0---0-----------3-2-3--0h2h3/5-7--
    ----------------------------------------
    ----------------------------------------
    ----------------------------------------
    ----------------------------------------
    
    
    VERSE
    |--------------------------|
    |----2-2---2-0---3-3---3-0-|
    |----3-3---3-0---4-4---4-0-|
    |--------------------4-----|
    |--------4-----2-----------|
    |--2-----------------------|
    
    
    PRE…
  • Intro:
    e:-----------------------------------------------------|
    B:-----------------------------------------------------|
    G:-----------------------------------------------------|
    D:-----------------------------------------------------|
    A:--1-1h3----1h3p1---1p0-----------------1-2--2-2h3----|
    E:-----------------3-----3p0---1-1----1h3--------------|
    
    e:-----------------------------------------------------|
    B:---------------------------…
  • the pattern:
    
        F#    B    E     F#   
    
    e ---2-----2----0-----2---
    B ---2-----4----0-----2---
    G ---3-----4----1-----3---
    D ---4-----4----2-----4---
    A ---4-----2----2-----4---
    E ---2----------0-----2---
    
    
    and on certain…
  • Standard Tuning: E A D G B E
    
    
    A                            Bm               A
    A billion people died on the news tonight
                                 Bm
    But not so many cried at the terrible sight
               A
    Well mama…
  • guitar chords
    G   3 5 5 4 3 3
    C   X 3 5 5 5 3
    D   X 5 7 7 7 5
    
    
    INTRO part 1
    --------------------------------
    --------------------------------
    --------------------------------
    -7--x-7--------9--x-9-----------
    -5--x-5-7--x-7-7--x-7-10--x-10--
    --------5--x-5---------8--x--8--
    
    
    INTRO…
  • INTRO/OUTRO
    |-----------------------------|
    |.---------------------------.|
    |--6--------------------------|
    |--------3-4-6-4----4--4p3-6--|
    |.----4----------4-----------.|
    |-----------------------------|
    
    Then there are…
  • Chords^
    
    G	D7	E	C	A
    
    3	3	7	3	5
    3	3	9	5	5
    4	5	9	5	6
    5	4	9	5	7
    5	5	7	3	7
    3	3	-	-	5
    
    
    G
    Saturday morning and it's time to go
    One of these could be the days but who could'a known
    D7
    Loadin' in the back of a pick-up truck
    Ridin'…
  • INTRO part 1
      ----5--------5-----7-9h12p9------------
      ----5--------5-----7-------12-9h12p9---
      ----6--------6-----8----------------11-
      ----7--------7-----9-------------------
      ----7--------7-----9-------------------…
  • first pattern:
    |------------------------------|
    |.-------------------------7~-.|
    |--------------------------7~--|
    |--9-7-9-7-9-7-------------7~--|
    |.-------------9-8-7~--7-7----.|
    |------------------------------|
    
    
    second…
  • Intro (E - C#m)
    	
    (Intro)
    E------------------------------------------------
    B----------------------5--------5----------------
    G------9----9-------------------6----------------
    D-----------9-------------------6-----REPEAT…
  • A
    In times like these
                   E  
    and times like those
                    A  
    What will be will be
                E 
    and so it goes
    
    and it always goes 
    F#m            B
    on and on and on and on and on
    F#m            B
    on…
  • Main riff:
    
    e---------------------------------------------|
    B---------------------------------------------|
    G---------------------------------------------|
    D---------------------------------------------|
    A---------------------------------------------|
    E------3-3-3-0-3-5-3-2-0----------------------|…
  • Tuning: Normal - EADGBe
    
                                  Chords
                           B   D   A   G   E  Emaj
                          +++ +++ +++ +++ +++ +++
                        e|-7-|-5-|-5-|-3-|-7-|-0-|…
  • [C#m7] I know she said its [E] alright
    [A] You could make it up next [E] time
    [C#m7] Well I know she knows [E] it's not right
    [A] There ain't no use in [E] lyin?
    [C#m7] Well maybe she thinks  I [E] know something maybe,…
  • main riff
    e------------------------- 
    B------------------------- 
    G---0-----------------4--- 
    D--0-0----4-----4----4-4-- 
    A--------0-0---4-4--2----- 
    D-5-----0-----4----------- 
    
    
    after a while the piano does some chords…
  • CM                                                           A
    Drink the water drink it down,this time i know i'm bound to spit it back up
    G                    CM                                               A…
  • Tuning: Normal - E A D G B e
    
    
    e|----------------------------------------------------------------|
    B|----------------------------------------------------------------|
    G|----------------------------------------------------------------|
    D|----------------------------------------------------------------|
    A|-x-7---7---9---7---7---7---9---7---7---7---9---7---7---7---9---7|
    E|-x-5---5---5---5---5---5---5---5---5---5---5---5---5---5---5---5|
    
    e|----------------------------------------------------------------|
    B|----------------------------------------------------------------|
    G|----------------------------------------------------------------|
    D|---9---9---11--9---9---9---11--9---9---9---11--9---9---9---8---8|
    A|---7---7---7---7---7---7---7---7---7---7---7---7---7---7---6---6|
    E|-0--------------------------------------------------------------|
    
    e|----------------------------------------------------------------|
    B|----------------------------------------------------------------|
    G|----------------------------------------------------------------|
    D|---7---7---9---7---7---7---9---7---7---7---9---7---7---7---9---7|
    A|---5---5---5---5---5---5---5---5---5---5---5---5---5---5---5---5|
    E|----------------------------------------------------------------|
    
    e|----------------------------------------------------------------|
    B|----------------------------------------------------------------|
    G|----------------------------------------------------------------|
    D|----------------------------------------------------------------|
    A|-0-7---7---9---7---7---7---9---7---9---9---11--9---9---9---11--9|
    E|---5---5---5---5---5---5---5---5-0-7---7---7---7---7---7---7---7|…
  • e-----------0---2---4-------4---5---0---0---2--
    B-----------0---4---5-------4---5---0---2---4--
    G-----------1---2---4-------5---6---1---0---2--
    D------2-4--2---4---6-------4---5---2---2---4--
    A--2/4------2---2---4-------6---7---2---0---2--
    E-----------0---2---4-------4---5---0---0---2--…
  • Intro: Am Am7 G G7 F F7 C C7  
      
     Am                  Am7  
     Well I was sitting, waiting, wishing 
     G               G7  
     You believed in superstitions 
     F              F7          C    C7  
     Then maybe you'd seen…
Наверх