Аккорды «Jackson 5»

Jackson 5
ДЖЕКСОН 5 (Jackson 5), американская поп- и ритм-энд-блюз-группа. Была сформирована в 1966 в Гари (Индиана). В ее состав вошли братья Джексон: Джэки (настоящее имя Зигмунд Эско; р. 4 мая 1951), Тито (настоящее имя Ториано Эдарилл; р. 15 октября 1953), Джермэйн (р. 11 декабря 1954), Марлон (р. 12 марта 1957) и Майкл (р. 29 августа 1958). Группа была создана их отцом Джо Джексоном, а ведущим вокалистом был молодой Майкл Джексон. Пика своей популярности группа достигла во время гастролей в Англии в… Читать полностью... ДЖЕКСОН 5 (Jackson 5), американская поп- и ритм-энд-блюз-группа. Была сформирована в 1966 в Гари (Индиана). В ее состав вошли братья Джексон: Джэки (настоящее имя Зигмунд Эско; р. 4 мая 1951), Тито (настоящее имя Ториано Эдарилл; р. 15 октября 1953), Джермэйн (р. 11 декабря 1954), Марлон (р. 12 марта 1957) и Майкл (р. 29 августа 1958). Группа была создана их отцом Джо Джексоном, а ведущим вокалистом был молодой Майкл Джексон. Пика своей популярности группа достигла во время гастролей в Англии в 1972. Дискография: DIANA ROSS PRESENTS THE JACKSON 5/ABC (1969)DIANA ROSS PRESENTS THE JACKSON 5 (1969)ABC (1970)CHRISTMAS ALBUM (1970)THIRD ALBUM (1970)GREATEST HITS (1971)MAYBE TOMORROW (1971)SKYWRITER (1973)ANTHOLOGY (1976)COMPACT COMMAND PERFORMANCES (1984) by The Jackson 5/Michael JacksonTHE ULTIMATE R AND B CHRISTMAS. Volum 1 (1993) by Various ArtistsTHE STEELTOWN COLLECTION (1995)SOULSATION! THE 25TH ANNIVERSARY COLLECTION (1995)THE ULTIMATE COLLECTION (1996)ESSENTIAL GOSPEL CELEBRATION (1996) by Various ArtistsGREAT SONGS AND PERFORMANCES THAT INSPIRED MOTOWN 25MOTOWN SUPERSTARS SERIES. Volum 12MOTOWN LEGENDSORIGINAL MOTOWN CLASSICSTHE GREAT LOVE SONGSTHIRD ALBUM/MAYBE TOMORROWLIVE! by The Jackson 5/Michael Jackson Скрыть...
Популярные аккорды Jackson 5:
алфавиту | просмотрам | случайно
  • Verse
    G:------------------------------------------------------
    D:-------1-3------------0-1-2-3---------------4-6-4-6------
    A:---2-3-----4----1-3-4---------3-4-----6---6------------
    E:-4--------------------------------4-6---4--------------…
  • Bass fig 1
    G------------------------------------------------------------------------|
    D------------------------------------------------------------------------|
    A----------5-----7--------8------------------------7------5------4-------|
    E---3--------------------------3-----------3-----------------------------|
    
    -----------------------------------------------------------------|
    -----------------------------------------------------------------|
    --------7-----9-------10------------------------9------7------5--|
    --5--------------------------5-------------5---------------------|
    
    chorus:play…
  • Abm                                     B  B  Db
    Dancin      Dancin      Dancin
    
                                             Abm
    She's   a   dancing   machine
    
    
    Automatic systematic
    
    
    Full of color self sustained
    
    
    Full of…
  • :Intro
    G--------------------------------------------------|
    D--------------------------------------------------|
    A---------------7----6---5-------3-----3/4---------|
    E--------------------------------------------------|
    Two…
  • play
    E|-----------|
    A|-----4---4-|
    D|-4-4---4---|
    G|-----------|
    throughout
    
    can you feel it...
    E|--------------|
    A|-5-4-2----5-4-|
    D|--------2-----|
    G|--------------|
    
    then during Michael's brilliant part
    E|----------------------------3---------------------|
    A|-----4---4--22-4-5----5-4--------4---4------4---4-|
    D|-4-4---4-----------22-----4--4-4---4----4-4---4---|
    G|--------------------------------------------------|
    
    if…
  • Intro: play one time
    ------------------------------------------------------------------------------------------------|
    ------------------------------------------------------------------------3---/---12--------------|
    ------------------------------------------------------------------------------------------------|
    -----3---------------1-----------------------3-------------------1------------------------------|
    repeat:
    G------------------------------------------------------------------------------------------------------------||
    D----------5-------3-------3-----------------------------------5-------3------3------------------------------||
    A-----------------------------5------4------2--------------------------------------5---5----4----2-----------||
    E-3-----------------------------------------------------3----------------------------------------------------||…
  • Bass fig1:
    G-------------------------------------------------------------------------------------------------------------|
    D------------------10------14--------10--12----10---7---5-----------5---7------------5----7-------------------|
    A---3------------------------------------------------------------7---------------7-------------------7--------|
    E-------------------------------------------------------------------------------------------------------------|
    
    Bassfig…
  • Verse:
     G#            C#  
       A-buh buh buh buh buh 
     G#          C#  
       A-Da da da da da da 
     
        G#                 C#  
    You went to school to learn girl 
             G#                  C#  
    What you never never…
Наверх