Аккорды «Jay Chou»

Jay Chou
Чжоу Цзелунь (кит. трад. 周杰倫, упр. 周杰伦, пиньинь: Zhōu Jiélún, минь.: Chiu Kia̍t-lûn; Джей Чоу, англ. Jay Chou) — тайваньский китайский музыкант, продюсер, актёр, режиссёр, лауреат более двадцати международных музыкальных премий, в том числе многократный победитель World Music Awards, как самый продаваемый исполнитель в Китае в 2004, 2006, 2007 и 2008 годах. Один из самых популярных в мире азиатских исполнителей. Получил классическое музыкальное образование. Сочиняет и исполняет музыку, соединяющую… Читать полностью... Чжоу Цзелунь (кит. трад. 周杰倫, упр. 周杰伦, пиньинь: Zhōu Jiélún, минь.: Chiu Kia̍t-lûn; Джей Чоу, англ. Jay Chou) — тайваньский китайский музыкант, продюсер, актёр, режиссёр, лауреат более двадцати международных музыкальных премий, в том числе многократный победитель World Music Awards, как самый продаваемый исполнитель в Китае в 2004, 2006, 2007 и 2008 годах. Один из самых популярных в мире азиатских исполнителей. Получил классическое музыкальное образование. Сочиняет и исполняет музыку, соединяющую в себе современный западный и китайский стили, сочетая ритм-н-блюз, рок, поп, хип-хоп и даже кантри. Для описания его творчества на Тайване появилось понятие «стиль Чжоу» . Чжоу Цзелунь поёт почти исключительно на литературном китайском языке гоюй. Однако, его нечёткую артикуляцию и специфическую «расслабленную» манеру некоторые критики называют «бормотанием». Певец заявляет, что не собирается ничего менять. Родился и вырос в городке Линькоу (林口鄉), уезд Тайбэй, Тайвань. Его родители были учителями средних школ: мать — Е Хуэймэй (кит. 叶惠美, пиньинь: Yè Huìměi), преподавала изобразительное искусство, а отец — Чжоу Яочжун (кит. 周耀中, пиньинь: Zhōu Yàozhōng), был биомедицинским научным сотрудником. Мать заметила тягу Джея к музыке в возрасте трех лет и записала его на уроки игры на фортепиано. В детстве он заслушивался песнями из магнитофона, который он носил везде с собой. В третьем классе, Джей заинтересовался теорией музыки, а также начал посещать уроки виолончели. Он был единственным ребенком в семье и любил в свободное время играть на фортепиано, подражать телевизионным актёрам, а также выполнять фокусы. Его любимым композитором был и остается по сей день Шопен. Родители Джея развелись, когда ему было 13 лет, что сделало его замкнутым ребёнком. Хотя у него были друзья, он часто предпочитает быть в одиночестве, слушая музыку и мечтая. В Тамканской средней школе он специализировался по классу фортепиано и виолончели. Он показал талант к импровизации, полюбил поп-музыку и начал писать песни. Джей Чжоу окончил среднюю школу с оценками недостаточными для поступления в университет, таким образом он был готов к прохождению обязательной военной службе. Но тем не менее, спортивная травма вызванная тяжелой болью в спине в конце концов привела к болезни Бехтерева (наследственное заболевание, воспаление позвоночника). В результате, он был освобожден от воинской службы. В то же время, он начал работать в качестве официанта. С его знаниями игры на фортепиано, Джей и его друг попали в шоу талантов Super New Talent King. Джей играл на фортепиано для своего друга, чье пение называли «вшивым». Хотя они и не победили, руководитель шоу Джеки Ву, влиятельный человек в развлекательном бизнесе Тайваня, случайно взглянул на партитуру Чжоу и был впечатлен его талантом. Впоследствии Джеки Ву нанял Джея в качестве композитора в пару с начинающим поэтом Винсентом Фаном. В течение следующих двух лет Джей писал песни для поп-артистов, а также обучался записи музыки и миксования звуков. Преданность Джея музыке была очевидна, поскольку он даже спал в музыкальной студии. Музыкальная студия позже была продана Alfa Music, и новый менеджер Ян Цзюньжун попросил Джея выпустить свой собственный альбом. Джей Чоу уже имел целый арсенал песен, которые он писал для других, но которые были отвергнуты. Среди этих песен Джей выбрал 10, которые он и включил в свой дебютный альбом Jay, выпущенный в 2000 году. Альбом создал ему репутацию одаренного певца и автора песен, стиль песен представлял собой смесь из R&B, рэпа и классической музыки. Слава о Джее быстро распространялась по всем странам региона, включая странах Юго-Восточной Азии, где проживали представители китайской диаспоры. С 2000 года, Джей выпускает ежегодно по одному альбому, за исключением 2009 года. Всего было продано несколько миллионов его альбомов, кроме того Джей удостоен множества наград. В 2003 году он стал звездой журнала Time (Азиатская версия). Он провел четыре мировых тура, "The One" (2002), "Incomparable" (2004), "Jay Chou The World Tours" (2007–2008) и "The Era" (2010–2011), выступал в таких городах, как Тайбэй, Токио, Гонконг, Пекин, Куала-Лумпур, Сингапур, Лас-Вегас, Торонто и Ванкувер. В отличие от большинства певцов, Джей имеет огромный творческий контроль над своей музыкой. Он не только композитор, но и продюсер всех своих альбомов, начиная с 2005 года он также является музыкальным директором. Скрыть...
Популярные аккорды Jay Chou:
алфавиту | просмотрам | случайно
  • TAB:
    
    e|--------------------|--------------|------------------|------------|
    b|---3--3-3--4-3--3-3-|-1-3--3-1---3-|---1--3-3--3-1-3--|-----3-1--1-|
    g|-3------------------|-----------3--|-3--------------3-|0-3------3--|
    d|--------------------|--------------|------------------|------------|
    a|--------------------|--------------|------------------|------------|
    e|--------------------|--------------|------------------|------------|
    
    e|--------------------|-----------1--|------------------|------------|
    b|---3--3-3--4-3--3-3-|-1-3--3-1---3-|---1--3-3--3-1-3--|----3-1--3-1|
    g|-3------------------|----------3---|-3--------------3-|0-3-----3---|
    d|--------------------|--------------|------------------|------------|
    a|--------------------|--------------|------------------|------------|
    e|--------------------|--------------|------------------|------------|
    
    
    e|--------1-----1-------|-----6-----6-|-----4-3-1-3-|-3-3-4-3-1------|
    b|-4-3-4-3---4-3--4-3-4-|-4-4---4-4---|-4-4---------|-----------4----|
    g|----------------------|-------------|--3----------|----------------|
    d|----------------------|-------------|-------------|----------------|
    a|----------------------|-------------|-------------|----------------|
    e|----------------------|-------------|-------------|----------------|
    
    e|--1-------|---6-3-1-----1----6--|
    b|-3--4-3-4-|-4-------4-4---3-----|
    g|----------|---------------------|
    d|----------|---------------------|
    a|----------|---------------------|
    e|----------|---------------------|
    
    chorus
    e|-1---------|------------|------------1-1--|---1-1------------------|…
  • Intro: C G Am F  
    e|------------|------------|-------------|-----------------------------------|
    B|----3-3-1-1-|----3-3-1-1-|-----3-3-1-1-|-----3-3-1-1-----------------------|
    G|---0-----0--|---0-----2--|---2------2--|----0-----2------------------------|
    D|------------|------------|-------------|-----------------------------------|
    A|-3----------|------------|-0-----------|-----------------------------------|
    E|------------|-3----------|-------------|--3--------------------------------|
    
    REPEAT…
  • Intro: A E D E
    
    
    Verse
    A   E, F#m  E, A  E, F#m  D E
    
    
    Chorus
    F#m      E      A,  F#m      E      A, F#m      E      A    Bm7,
    F#m    E
    
    
    Verse 2
    
    A E, F#m C#m7, D C#m7, D E, A E, F#m C#m7, D C#m7, D E A
    
  • Intro (plucking):
    
    e|------------------------|------------------------|	
    B|----3-----3---3--3-3----|----3-----3---3--3-3----| 
    G|---0-0-----0---0--------|---0-0-----0---0--------|	 
    D|--2----0h2---0----------|--2----0h2---0----------|
    A|------3-----------0-----|------3-----------0-----|
    E|------------3---3-2-----|------------3---3-2-----|
    
    
    *h->…
  • drop d
    
    E  :------------------------|----------------|
    B  :------------------------|----------------|
    G  :------------------------|----------------|
    D  :-3-/5-6-p5-6-p5-6-p5-8-5|-3-5------------|
    A  :-3-/5-6-p5-6-p5-6-p5-8-5|-3-5------------|
    D…
Наверх