Аккорды «Jefferson Airplane»

Jefferson Airplane
Jefferson Airplane — американская группа из Сан-Франциско,United States, пионеры psychedelic rock. Была образована в 1965 году. Выступление группы в августе 1969 года на фестивале Woodstock (Вудсток) было одним из самых ярких моментов за всю историю рока. Группа несколько раз возрождалась под именами «Jefferson Starship» и потом просто «Starship». Имя группы было занесено в Зал славы рок-н-ролла в 1996 году. Название «Jefferson Airplane» - это также сленговое название для спички, которая согнута… Читать полностью... Jefferson Airplane — американская группа из Сан-Франциско,United States, пионеры psychedelic rock. Была образована в 1965 году. Выступление группы в августе 1969 года на фестивале Woodstock (Вудсток) было одним из самых ярких моментов за всю историю рока. Группа несколько раз возрождалась под именами «Jefferson Starship» и потом просто «Starship». Имя группы было занесено в Зал славы рок-н-ролла в 1996 году. Название «Jefferson Airplane» - это также сленговое название для спички, которая согнута пополам и используется для того, чтобы держать сигарету с марихуаной, когда та выкурена настолько, что её не удержать пальцами. Есть мнение, что название группы произошло от этого слэнгового термина, но член группы Йорма Кауконен утверждает, что название придумал его друг Стив Тэлбот как насмешку над блюзовыми именами вроде «Blind Lemon» Jefferson. К интересным фактам можно отнести то, что первое выступление Jefferson Airplane прошло в клубе «Матрица» (Сан-Франциско), который показан в фильме "Страх и ненависть" в Лас-Вегасе. Так же несколько композиций использовались в PC-игре Battlefield Vietnam. Первоначальный состав: Марти Балин (30 января 1942), Пол Кантнер (17 марта 1941), Йорма Кауконен (23 декабря 1940), Боб Харви и Джерри Пелоквин (впоследствии на их место пришли Александр Скип Спенс (18 апреля 1946) и Сигни Андерсон (Сигни Толи Андерсон, 15 сентября 1941), которых затем сменили Спенсер Драйден (7 апреля 1938) и Джек Кэсэди (13 апреля 1944)). Вначале они исполняли смесь фолка и рока (позже названной как вест-коаст-рок). Кантнер и Балин вскоре стали очень популярными в местном масштабе, играя на концертах, организованных промоутером Биллом Грэмом. Осенью 1966 года выходит первый альбом - "Jefferson airplane takes off". Вскоре группу покидает Сигни Андерсон, и на ее место приходит новая вокалистка - Грейс Слик (Грейс Барнетт Уинг, 30 октября 1939), которая уже была известна в составе группы "Great society", из репертуара которой были позаимствованы две песни для альбома "Surrealistic Pillow" - "White Rabbit" и "Somebody to Love", ставшие хитами. "Surrealistic Pillow" до сих пор считается наиболее ярким олицетворением знаменитого "Лета Любви" 1967 года, хотя и вышел немного раньше самих событий - в феврале. Альбом попал на третье место Billboard и доказал, что группы Западного побережья твердо стоят на ногах. В 1969 состоялось триумфальное выступление Jefferson Airplane на Вудстоке, после которого за ними закрепилась репутация "психоделических бунтарей". В 1970 году музыканты решают прекратить концертную деятельность. Каукконен и Кейсиди создают группу Hot Tuna. В 1974 году группа прекращает своё существование. В последствии возобновляет деятельность под другими названиями. Скрыть...
Популярные аккорды Jefferson Airplane:
алфавиту | просмотрам | случайно
  • G|---------------------------------------|
    D|---------------------------------------|
    A|---------------------------------------|
    E|--2-2-0-0-0-2-2-0-0-0-2-2-0-0-0--------|
    This goes on for the entire song excluding the chorus
    
    G|---------------------------------------|
    D|---------------------------------------|
    A|---0-0----------2-2--------------------|
    E|-------0-0--2-2------------------------|
    Repeat…
  • intro/verse
    G|----------------------------------------------------------------|
    D|----------------------------------------------------------------|
    A|9-9-0--9-099-9-0--9-0910-10-0---10-01010-10-0---10-0109--simile-|
    E|-----89---------89-----------910-------------910----------------|
    
    G|------------7----------------------------|-----------------------------------|
    D|7-7-7-7-9---------7---7---7--------------|--7---7-----------7----7----7------|
    A|-----------------------------3459-9-0--9-|--------3-335-53---------------3457|
    E|----------------55--55--55-----------89--|55--55-5--------55-5-55-5-55-7-----|
    
    G|--------------------------------------------------------------------|
    D|------7⁄5----5----53--7----7----7-------9-------9-------7-7-7-------|
    A|557-55---5-55-5-55-----------------34577-7-750---7-757--------9---9-|
    E|--------------------5--5-55-5-55--------------57------5--------789--|
    
    G|-------------------------------------|
    D|-------------------------------------|
    A|9-0--9-099-9-0--9-099-9-0--9--simile-|
    E|---89---------89---------89----------|
    
    G|-------------------------------------------|
    D|-------------------------------------------|
    A|0910-10-0---10-01010-10-0---10-0109-9-0--9-|
    E|---------910-------------910-----------89--|
    
    G|-------------------------------------------|
    D|-------------------------------------------|
    A|-099-9-0--9-0910-10-0---10-01010-10-0---10-|
    E|--------89-----------910-------------910---|
    
    G|--------------------------------------------------------------------------|
    D|--7----7-----------7---7---7-------7----7----7---------7----7----7--7-7---|
    A|---------323453---------------775----------------5675---------------------|
    E|5--5-55-5------5355--55--55--5---55-5-55-5-55-5-5----55-5-55-5-55-5--5-55-|…
  • Intro [bass line and chords shown]:
    
    Ab Bb [2X]
    v v v v v v v v
    -----------------|-3-----1---------|
    -3-3-3-3-3-3-3-3-|-----------------|
    -----------------|-----------------|
    -----------------|-----------------|
    
    Ab Bb Bb…
  • intro (x3) verse riff
    G|----------------------|----------------------------------|
    D|----------------------|5--4440---------5-5-4440----------|
    A|5-5-45033-33303555----|-------3323-034---------3323-034--|
    E|----------------------|----------------------------------|
    
    chorus
    G|--------------------------------------------------------------------------|
    D|--------------------------------------------------------------------------|
    A|5-5-45033-33303555----5-5-45033-33303555---/5--3--/5--5-5-45033-33303555-|
    E|--------------------------------------------------------------------------|…
  • intro
    D G 4x (fingerpick) :D G Em D D A G Em D D G Em D D A G Em Bm:
    D A G Em G D
    D G 4x
    
    D G Em D
    Sometimes I feel like I am leaving life behind
    D A G Em D
    My hands are movin' faster than the movement of my mind
    D G Em…
  • D
    Today, I feel like pleasing you more than before
    
    Today, I know what I wanna do, but I don't know what for
    C F Em C D C D
    To be living for you is all I want to do
    C F Em C D C D
    To be loving you it'll all be there when…
  • capo fret 4 but chords given as open shapes
    
    intro : pick around : Am x02210 , Dm7 x00211 , Am x02210 , G xx0033
    
    [Am]Lather was [C]thirty years [G]old today,
    They [Em]took away [D]all of his [C]toys.
    His [Am]mother sent…
  • Fmaj7 Dm
    Is everything alright
    E Am Dm
    I just called to say how lost
    E Am
    I feel without you
    Miles away
    I-really-can't-believe I'm here
    and how.. I still care.. about you
    
    
    Fmaj7 Dm
    Hearts can break
    E Am
    And never mend together
    Dm…
  • Intro [4X]:
    
    E5 G5[E bass]
    v v v v v v v v
    -----------------|-----------------|
    -----------------|-----------------|
    -----------------|-----------------|
    -2-----5---------|-----0-2---0-0-2-|
    -2-----5---------|---2--------2----|
    -0-----3---------|-----------------|
    
    Verse…
  • Intro: Gm7 Fm7 [see Notes for tuning/fingering]
    / / / / / / / / / / / / / / / /
    
    Verse 1:
    
    Gm7 [verse 1: hold 2 extra beats]
    I didn't know you were the one for me, I couldn't see
    Fm7
    But you were waiting for
    Gm7
    Someone…
  • Goes like this:
    G# C# F#
    F# C# G#
    
    Listen to the recording for rhythm...
    
    Look what's happening out in the streets
    Got a revolution Got to revolution
    Hey I'm dancing down the streets
    Got a revolution Got to revolution
    Ain't…
  • Intro:
    {Am / / / Bm/A / / /}
    
    Verse 1:
    (fingerpicked)
    Am Bm/A Am
    Martha she listens for the ticking of my footsteps,
    Bm/A Am Bm/A
    patiently
    Am Bm/A Am
    She sifts the hairy air that's warm and woodswept,
    Bm/A Am Bm/A
    pleasantly
    
    Bb…
  • e||----------------|---------------|----------------|-------------|
    B||----7h8---7h9---|-7h8---7-------|----7h8---7h8---|-7h8---7-----|
    G||----7-----7-----|-7-----7-----7-|----7-----7-----|-7-----7-----|
    D||----0h9----h8---|--h9-9-----0---|----0h9----h9---|--h9-9-----0-|
    A||----------------|---------------|----------------|-------------|
    D||-0------0-------|-0-------0-----|-0------0-------|-0-------0---|
    |…
  • intro: Em G D A
    
    
    Em G D A Em G D A
    Jane, you say it's all over for you and me, girl
    There's a time for love and a time for lettin' it be, baby
    
    Em D G D
    Jane, you're playin' a game
    Em D G D
    Called hide-and-seek by its real…
  • intro:
    E E D Asus2 -or- D Asus2
    e-|--0--0--------------------0--------------2--2--2--2--0---------------------
    B-|--0--0--------3--3--3--3--0--------------0--2--3--2--0---------------------
    G-|--1--1--------2--2--2--2--2--------------2--2--2--2--2---------------------
    D-|--2--2--------0--0--0--0--2--------------------------2---------------------
    A-|--2--2--------2--4-----4---------------------------------------------------
    E-|--0--0---------------------------------------------------------------------
    ^-melody…
  • TUNING: E B E G# B E (E chord)
    CAPO on 2nd fret
    
    Part A: Verse
    
    e ||------------------|-----------------|
    B ||------------------|-----------------|
    G#||-----3------3-----|-----1-----1-----| (repeat)
    E ||---0------0-----0-|---0-----0-----0-|
    B…
Наверх