Аккорды «Jet»

Jet
В истории рок-музыки есть, как минимум, три рок-группы с названием Jet: британская, существовавшая в 70-е годы, современная австралийская и русская, существовавшая в конце 90-х годов прошлого столетия. Австралийская рок-группа Jet, состоящая из гитариста/вокалиста Кемерона Мунси (Cameron Muncey), басиста Марка Вилсона Mark Wilson, двух братьев — барабанщика Криса Кестера (Chris Cester) и гитариста/вокалиста Ника Кестера (Nic Cester), была основана на родине ребят, в городе Мельбурн, в начале… Читать полностью... В истории рок-музыки есть, как минимум, три рок-группы с названием Jet: британская, существовавшая в 70-е годы, современная австралийская и русская, существовавшая в конце 90-х годов прошлого столетия. Австралийская рок-группа Jet, состоящая из гитариста/вокалиста Кемерона Мунси (Cameron Muncey), басиста Марка Вилсона Mark Wilson, двух братьев — барабанщика Криса Кестера (Chris Cester) и гитариста/вокалиста Ника Кестера (Nic Cester), была основана на родине ребят, в городе Мельбурн, в начале нового тысячелетия. В 2002 году у ребят вышла первая пластинка под названием Dirty Sweet. Издавался первенец исключительно на виниле, а первый тираж составил всего 1000 копий. Альбом пользовался бешеным спросом. После того как ребята допечатали тираж ещё 1000-ми экземплярами, группа стала известна в Великобритании. Jet подписали контракт с американской компанией Electra в начале 2003, а уже в мае винил Dirty Sweet продавался в США. У себя на родине ребята разогревали концерты Rolling Stones. В ноябре группа выпустила свой первый полноценный студийный альбом Get Born. Продажи дебютного альбома Get Born достигали отметки в 4 миллиона копий, благодаря композиции «Are You Gona Be My Girl?», которая активно ротировалась на радиостанциях по всему миру. Jet были номинированы на 7 премий Австралийской Ассоциацией Звукозаписывающих Компаний, 6 из которых группа выиграла, включая такие номинации как «Альбом года» и «Сингл года». Летом 2005 года у группы начался европейский тур совместно с Oasis. Осенью 2006 года у Jet вышел второй альбом Shine On, спродюсированный Дейвом Сарди (Dave Sardy). В середине 2009 года вышел новый альбом Shaka Rock - прекрасный образец смеси инди рока и стадионого рока. 26 марта группа Jet сообщила о своем распаде после 11-ти лет существования. Группа написала следующее: “После многих успешных лет в написании, записи и выступлении мы решили прекратить существование группы”. Они продолжили: “Фанаты в пабах, театрах, стадионах и на фестивалях со всего мира сделали нашу историю возможной, мы хотим поблагодарить вас за это. Спасибо и до свидания.” Все участники группы сосредоточатся на своих новых проектах, Nic Cester и Mark Wilson уже принимают участие в новом группе под названием DamnDogs. Скрыть...
Популярные аккорды Jet:
алфавиту | просмотрам | случайно
  • -INTRO 1-
    
    G|------------------------------------------|
    D|------------------------------------------|
    A|-------------------3----------------------|
    E|-5-5-5--5-5-0--3-5----5-5-5--5-5-0--3-0-3-|
    
    G|------------------------------------------|
    D|------------------------------------------|
    A|-------------------3----3-5--5-5-3--------|
    E|-5-5-5--5-5-0--3-5----5-------------5-5-3-|
    
    G|------------------------------------------|
    D|------------------------------------------|
    A|-------------------3----------------------|
    E|-5-5-5--5-5-0--3-5----5-5-5--5-5-0--3-0-3-|
    
    G|------------------------------------------|
    D|------------------------------------------|
    A|-------------------3----------------------|
    E|-5-5-5--5-5-0--3-5----5---------------15-|
    
    G|------------------------------------------|
    D|------------------------------------------|
    A|-------------------3----------------------|
    E|-5-5-5--5-5-0--3-5----5-5-5--5-5-0--3-0-3-|
    
    G|------------------------------------------|
    D|------------------------------------------|
    A|-------------------3----3-5--5-5-3--------|
    E|-5-5-5--5-5-0--3-5----5-------------5-5-3-|
    
    -VERSE-…
  • Natural tuning (both Gtr.1 & Gtr.2)
    
    Slight Dist. - whole song
    
    NOTE:
    Only the intro part and ending has two guitars i think gtr.2
    plays the same as the main guitar(gtr.1) all the rest of the
    song.
    
    //INTRO:
    
    Gtr.1
    
    E----------------------------------------------------|
    B----------------------------------------------------|
    G--2-------------------------------------------------|
    D--2-------------------------------------------------|
    A-(0)------------------------------------------------|
    E----------------------------------------------------|
    |
    Gtr.2
    |
    E-------------------------------------------------|
    B-------------------------------------------------|
    G-------------------------------------------------|
    D-------------------------------------------------|
    A-------------------------------------------------|
    E-------------------------------------------------|
    
    
    E--------------------------------------------------------|
    B-(3)-------------------(3)-3----------------------------|
    G--2---------------------2--2----2-----------------------|
    D--2---------------------2--2----2-----------------------|
    A--------------------------------------------------------|
    E--------------------------------------------------------|
    |
    Gtr.2
    |
    p.m..............................................
    E-------------------------------------------------|
    B-------------------------------------------------|
    G-------------------------------------------------|
    D-------------------------------------------------|
    A-0-0-0-0-0-0-0-0-0-0-0-0-0-0-0-0-0-0-0-0-0-0-0-0-|
    E-------------------------------------------------|…
  • Tuning:
    
     intro
    
    e|---------------------------------------------------------------------------|
    B|---------------------------------------------------------------------------|
    G|---8--10-10-8-10-10-8-8--10---10-------------------------------------------|
    D|---8--10-10-8-10-10-8-8--8----8--------------------------------------------|
    A|---6--8--8--8-8--8--8-8----------------------------------------------------|
    E|---------------------------------------------------------------------------|…
  • Intro
    
        E ---------7---------7-------5-    -------10---------------------|
        B -----------------------------    --10b---------10r--8----------|
        G --6-7-----------7-------5----    -----------------------9------|…
  • h=hammer-on
    p=pull off
    
    (intro)
         Em
    e|------------------------------|			 e|--3-|
    B|------------------------------|          		 B|--2-|
    G|-------0--------0-----------0-| x 6 last time with a   G|--0-|
    D|-----0--------0---0h2p0-------|…
  • Intro     G  C   G   C
    
    
    
            G                  C
    Well I been thinking bout the future
    G              C
    Too young to pretend
    G                            C
    Such a waste to always look behind you
    G…
  • Intro: A Bb F
    
    Verse 1: 
    
    A                     Bb          F
    Lazy Gun messed up my television yeah
    A                              Bb          F
    You get no younger from the colors in your hair
    A…
  • Standart tuning
    
    Am/G  C/B
    
    -0-----0-
    -1-----1-
    -2-----0-
    -0-----0-
    -0-----2-
    -3-----0-
    
    
    
    [Verse 1]
    
    C                     G
    Take my photo off the wall
    
                     Am      Am/G         F
    If it just won't sing for…
  • The verses are chords.  The strum is v v  v^v (down down down up down)
    
    C
    Take a look
    C
    At what I took
    F                        F
    A leaf out of everybody's book
    C                  C           F
    We see what you can't see
    F…
  • A      G             D          A
    Timothy, I took your place
    A      G                   D        A            
    Timothy, cause it’s such a waste
    Bm           G      
    Timothy, we found your spaceship
    Bm                G…
  • A
    I went down to the bank
    
    To get me a'pay
               D             A
    I'm gonna get me outta here
    A
    I got me some cash
    
    I'm heading back to LA
               D             A
    I'm gonna get me outta here
    
    A
    I'm sacking the man…
Наверх