Аккорды «Jethro Tull»

Jethro Tull
Английская группа «Jethro Tull» (это имя ученого-аграрника, жившего около 200 лет назад), образовалась в Лютоне (Великобритания) в 1967 году. Исходный состав состоял из Иана Андерсона (вокал, флейта, р. 10 августа 1947), Мика Абрахамса (гитара, вокал, р. 7 апреля 1943), Гленна Корника (бас-гитара, р. 24 апреля 1947) и Клайва Банкера (ударные, р. 12 декабря 1946). Иан Андерсон впервые выступил в блэкпулской группе «John Evan Smash» в 1966 году, участники которой позднее и составили ядро легендарного… Читать полностью... Английская группа «Jethro Tull» (это имя ученого-аграрника, жившего около 200 лет назад), образовалась в Лютоне (Великобритания) в 1967 году. Исходный состав состоял из Иана Андерсона (вокал, флейта, р. 10 августа 1947), Мика Абрахамса (гитара, вокал, р. 7 апреля 1943), Гленна Корника (бас-гитара, р. 24 апреля 1947) и Клайва Банкера (ударные, р. 12 декабря 1946). Иан Андерсон впервые выступил в блэкпулской группе «John Evan Smash» в 1966 году, участники которой позднее и составили ядро легендарного андерсоновского проекта «Jethro Tull». А поначалу от блэкпулцев откололись только Иан Андерсон и басист Корник: в декабре 1967 года они прибыли в Лондон и объявили набор музыкантов. Весной 1968 года новый ансамбль успешно выступил на Виндзорском фестивале джаза. Критики охарактеризовали его как восходящую звезду арт-рока, а продюсеры компании «Island» предложили Андерсону подписать контракт на три года. Первая пластинка группы, возглавляемая лучшим флейтистом рок-музыки, появился в конце 1968 года. Это единственный проект «Jethro Tull», композиции которого базировались на блюзовой гитаре (это манера Мика Абрахамса). Лидер Иан Андерсон, однако, тяготел к несколько иной форме музыкального выражения, а именно к арт-року в духе менестрельских баллад со значительным влиянием хард-рока. В результате Абрахамс вынужден был уйти. На его месте недолго побыли Тони Йомми и Дэйв О’Лист (экс-«Nice»), но основательно закрепился лишь Мартин Барре (р. 17 ноября 1946), ставший вскоре одним из самых виртуозных рок-гитаристов. Первый же сингл, записанный с его участием, «Living In The Past» оказался на третьей строчке британских хит-парадов. Начиная со второго альбома стиль «Jethro Tull» укрепился в рамках тяжелого арт-рока с выраженными гитарными риффами и удивительными импровизациями флейты Андерсона.Такого в истории рок-музыки до сих пор не было, и ансамбль очень быстро занял место в символической пятерке самых новаторских групп мира вместе с «Beatles», «Rolling stones», «Genesis» и «Led zeppelin». Начиная с 1970 года продукция «Jethro Tull» имела большой успех во всех странах. В 1971 году вышел самый известный альбом коллектива «Aqualung», одноименная песня из которого стала визитной карточкой группы. Но от диска к диску композиции группы становились все более сложными и глубокими, что (невзирая на высочайшее качество музыкального материала тех лет) в 1973 году привело к конфликту с критиками музыкальных изданий, обвинивших ансамбль в излишней «вычурности» и «заумности». В ответ на это обвинение - «Jethro Tull» один только раз попробовали вернуться к доступной и простой манере изложения своих песен (диск 1974 года), но тут возмутились слушатели, которые ожидали от группы дальнейших «серьезных» разработок. В итоге мнение поклонников музыканты справедливо взяли за основу, и дальнейшая продукция ансамбля вплоть до 1980 года состояла из высококлассных арт-альбомов с изумительной музыкой, подражать которой до сих пор еще не взялся никто. Из дискографии в период с 1970 по 1980 год трудно выделить какой-то один диск в качестве лучшего. Легче указать на те, что чуть слабее: это диск 1974 года и альбом 1979 года. В концептуальном плане наиболее глубокомысленны философские работы 1972, 1973, 1975, 1978 и 1980 годов. В годы расцвета «Jethro Tull» к Иану Андерсону вернулись его бывшие коллеги по «John Ivan Band», что способствовало стабильности много лет. Кризис настиг этот замечательный коллектив лишь в начале 80-х: альбомы 1982 и 1984 годов были слишком загружены оркестровками с элементами электронного звучания, а лидер-гитара несколько отошла на второй план. Силы для возрождения были найдены Андерсоном в середине десятилетия. Диск «Crest of a Knave» хотя и был сделан в обычной для «Jethro Tull» фолк-хард-роковой манере, но имел более громкий саунд, чем его предшественники. В 1989 году команда получила «Грэмми» за этот альбом. Релиз «Rock Island» почти повторил успех «Crest of a Knave», так как на нем был сделан значительный крен в сторону хард-рока. В 1993 году фирма «Chrysalis» выпустила «25th Anniversary Box Set», состоящий из ремиксов лучших вещей «Jethro Tull», а также некоторых новых треков. Альбомы 90-х годов несут на себе небольшой отпечаток восточных влияний. Андерсон вновь немного утяжелил звучание группы. Последний на данный момент альбом группы «The Christmas Album» (2003) включает в себя акустические песни связанные с рождественской тематикой. В новом веке «Джетро Талл» больше гастролируют (в том числе в России), чем балуют нас новыми релизами. А в начале 2008 года Ян Андерсон удостоился Королевской награды, которой за сорок с лишним лет до него были отмечены «Битлз». Теперь он тоже носит гордое звание «Члена Британской Империи» (MBE). Правда, сам он относится к своему награждению со здоровой иронией, сравнивая себя с сотнями никому не известных трудяг, которые получают такие награды за выслугу лет. Скрыть...
Популярные аккорды Jethro Tull:
алфавиту | просмотрам | случайно
  • heavy metal intro:
    
    8 8 8 8 4 4 4.8 2 P 8 4 2
    e:|-------------|-------------------------|-4-4--4-|-----6---6-------6---
    h:|-------------|-------------------------|-6-6--6-|-----8---8-------8---
    g:|-------------|-------------------------|-6-6--6-|-----8---8-------8---
    D:|-------------|-------------------------|-6-6--6-|-----8---8-------8---
    A:|-5---1-3-4-3-|-5--------1--3-4----3----|-4-4--6-|-----6---6-------6---
    E:|---3---------|-----3-------------------|--------|---------------------
    Sit-ting…
  • 0:00
    G---||-----------------------||----------------|-----------------------
    D---||*-3-3--2-0----0---0-2-*||-0-2-3--0---0-2-|-3-3--2-0--------0---0-
    A---||*----------1----1-----*||----------1-----|----------1--1-1---1---
    E---||-----------------------||----------------|-----------------------
    
    
    G---|------------|------------------2-|-2--5--7-5-7--7-5-3---|---------
    D-2-|-3-3--2-0---|-0-2-3--2-3-5-3-5---|--------------------3-|---------
    A---|----------1-|--------------------|----------------------|---------
    E---|------------|--------------------|----------------------|-5--5-6--
    
    
    G---------------|----------------------|-------------------|-12/2---2-|
    D---------------|----------------------|-------------3-2-0-|----------|
    A---------------|----------------------|-------------------|----------|
    E-5-3--1--3-5-3-|-1--3--5-6-5--6-5-3-1-|-3-5-3--1--3-------|----------|
    
    0:39
    G---|-7----------7-|-7--------------|---7---------|-7------------|-----
    D---|---7p5--------|---7-5----5h7-5-|-7---7-5-----|---7-5----7-5-|-(5)-
    A---|-------8-5----|--------8-------|---------8-5-|-------8------|-----
    E---|--------------|----------------|-------------|--------------|-----
    
    Piano…
  • INTRO:
    
    g:|---------------------------|---------------------------|
    D:|---------------------------|---------------------------|
    Bb:|-----2-----2-------0-0-0---|-----5-----5-------------0-|
    F:|---0-----0---------0-0-0---|---7-----7---------0---0---|
    C:|-0-----4-----0-(2)-2-2-2---|-0-----7-----0-(5)---3-----|
    G:|-------------------3-3-3---|---------------------------|
    
    g:|---------------------------|---------------------------|
    D:|---------------------------|---------------------------|
    Bb:|-----2-----2-------0-0-0---|-----5-----5-----0-----0---|
    F:|---0-----0---------0-0-0---|---7-----7-----0-----0-----|
    C:|-0-----4-----0-(2)-2-2-2---|-0-----7-----5-----3-------|
    G:|-------------------3-3-3---|---------------------------|
    
    VERSE:
    
    Really…
  • 9x                      3x
    G---||----------------------||-------------5--3-0--||-------5-5-3------
    D---||*-5/7--7-7-----7-5-3-*||*-----5---5---------*||*------------5----
    A---||*--------------------*||*-------------------*||*-----------------
    E---||----------------------||--3-3---3------------||--3--3----------3-
    
    
    G----5-3----------5-5-3--------------||--------------------------------
    D--------5-5--------------5---------*||--------------------------------
    A-----------------------------------*||--------------------------------
    E-3----------3--3-------1---2--3--3--||-13-13-15-15-13-13-15-15-13-13--
    
    
    G--------------|--------------------------------------------------|----
    D--------------|------------------------5--5-5---5--5-5---5-------|----
    A--------------|-3--3-3---3--3-3-1--1-1---------------------------|-3--
    E-15/3-3-3-3-3-|---------------------------------------------3--3-|----
    
    
    G-------------------------------------------------||-------------------
    D---------------------5--5-5---5--5-5---5---------||*----------------3-
    A-3-3---3--3-3-1--1-1---------------------------5-||*-5--5-5--5-5--5---
    E------------------------------------------3--3---||-------------------…
  • Capo 7th fret and ignore the notes on the left.
    
    Intro:
    
    Em-----------------------------| ?-----------------------------|
    E|-0-0-0---0-0---0-0---0-0---0-0----0-----0-----0-----0-----0----------
    B|-0-----0-----0-----0-----0-----0--3-3-----3-----3-----3-----3--------
    G|-0--------------------------------4---4-----4-----4-----4-----4------
    D|-2--------------------------------0----------------------------------
    A|-2--------------------------------0----------------------------------
    E|-0-------------------------------------------------------------------
    
    
    Em-----------------------------|…
  • Main Riff:
    E-----------------------------------------
    B-----------------------------0-----------
    G------------0----2-----4---4---2---0---2-
    D---0----2--------2---------------------2-
    A-----------------0---------------------0-
    E-----------------------------------------
    
    E-----------------------------------------
    B-----------------------------------------
    G-------0-2--------0--2--0--2-4p2p0h2-----
    D---0-2-------0-2-----2--0--0-------------
    A-----------0---------0-------------------
    E-----------------------------------------
    
    
    Verse…
  • Note: CAPO 3rd fret (written as though 3rd fret = open)
    
    Add lots of rhythmic style to the chord playing
    from sus2 to major to sus4 forms.
    
    Chord forms named as if played without a capo:
    
    F D2 D D4 D5 A A2 A4 G F2
    e +-1--0--2---3---5--0--0--0----3---1--|
    G…
  • [Capo on 1st fret]
    
    Gm Fsus2/C Gm Fsus2/C
    
    Gm F Dm C
    I'll buy you six bay mares to put in your stable
    Gm Dm F C
    six golden apples bought with my pay.
    Gm F Dm C
    I am the first piper who calls the sweet tune,
    Gm Dm F C A
    but…
  • Intro
    
    E--------------------------------------------------------------------------
    B--------------------------------------------------------------------------
    G--------------------------------------------------------------------------
    D--2-2-2-0--0-2---2-2-2-0---0-2------2-2-2-0---0-2-----2-2-2---------------
    A----------2--------------2------------------2------------------1-1-1-0----
    E------------------------------------------------------------3-------------
    
    Riff.…
  • C C Am Am G G D D D D =
    
    Wond=D5ring Aloud, how we feel today?
    C C Am Am G G D D D C D D D D
    Last night set the sunset, my hand in her hair. =
    
    C C D D G Em D D =
    Em Em G =
    
    We are our own saviors, as we start, both our…
  • (capo III)
    
    1st verse play 10x, then the chorus
    2nd verse play 11x, then the chorus
    3rd verse play 3x, then go to ending
    
    E||-------------------------------0--0--0-|----------2--2--0-----------0--0--0-|
    B||-------------------------------1--1--0-|------3---3--3--3--------3--3--3--0-|
    G||------2----------2----------2--2--2--2-|----2-----2--2--2-----2-----2--2--0-|
    D||----2---------2----------0-----0--0--0-|----------0--0--0-----------0--0--0-|
    A||--0----------------------------0--0--0-|-0-------------------3--------------|
    E||-----------3--------2------------------|------------------------------------|
    (verses…
  • ^ v ^ v v ^ v ^ v ^ v ^ v ^ v ^ v ^ v ^ v ^ v
    
    |-------2-------|-------0---0-|-----0-0-0-0-|-----0-0-0-0-|
    |---------0h3p0-|-----1-1---1-|-----1-1-1-1-|-----1-1-1-1-|
    |-----2--(2)----|---0---0--(0)|-----0-0-0-0-|-0-4-4-4-4-4-|
    |---0-----------|-0-----------|-0-2---------|-------------|
    |-0-------------|-------------|-------------|-------------|
    |---------------|-------------|-------------|-------------|
    1…
  • [INTRO]
    
    e|----------0--0------12h10-----10---------8---8--8h10---10---12h10-----10-|
    B|----------------10--------h13--------------------------10---------h13----|
    G|-------7--7--5-----------------------------------------------------------|
    D|-2--5--7--7--5-----------------------------------------------------------|
    A|-JUST-PLAY-CHORDS--------------------------------------------------------|
    E|-IF-YOU-WANT-------------------------------------------------------------|
    
    e|-10--h8--h10------------|
    B|-10-let-ring------------|
    G|-SOUNDS-----------------|
    D|-LIKE-------------------|
    A|---------------5--h3-h5-|
    E|-MANDOLIN---------------|
    
    
    [VERSE]
    
    Dm
    Good…
  • E||--5----7----|-----------------5----|--7----8----7----5----|--7-|
    B||------------|--5----7----8---------|----------------------|----|
    G||------------|----------------------|----------------------|----|
    D||------------|----------------------|----------------------|----|
    A||------------|----------------------|----------------------|----|
    E||------------|----------------------|----------------------|----|
    
    E|-7----5---------5----|-----------------|-----------------|--------------|
    B|-----------8---------|--8----7---------|-----------------|------------5-|
    G|---------------------|------------7----|--7/---9----7----|--9/---7------|
    D|---------------------|-----------------|-----------------|--------------|
    A|---------------------|-----------------|-----------------|--------------|
    E|---------------------|-----------------|-----------------|--------------|
    
    E|---------------------|-----------------|-----------------5-|
    B|---------------------|-----------------|--5----7----8------|
    G|-7----5----4h---5h---|--4--------------|-------------------|
    D|---------------------|-------7----2----|-------------------|
    A|---------------------|-----------------|-------------------|
    E|---------------------|-----------------|-------------------|
    
    E|-7h---8h---7----5----|--7----|--7h---5---------5----|--------------|
    B|---------------------|-------|------------8---------|--8/---7------|
    G|---------------------|-------|----------------------|------------7-|
    D|---------------------|-------|----------------------|--------------|
    A|---------------------|-------|----------------------|--------------|
    E|---------------------|-------|----------------------|--------------|
    
    E|---------------------|-----------------|-------------------|
    B|---------------------|-----------------|-------------------|
    G|-9----7----5h---7h---|--5--------------|-------------------|
    D|---------------------|-------9----5----|--5/---7----9h---7-|
    A|---------------------|-----------------|-------------------|
    E|---------------------|-----------------|-------------------|
    
    E|---------------------|----------------------|-------|---------------------|
    B|---------------------|----------------------|-------|--5---------7-----8--|
    G|-9-------------------|----------------------|-------|--9---------11----12-|
    D|------9h---8h---7----|--5h---7h---5---------|-------|---------------------|
    A|---------------------|-----------------9----|--7----|--7----9----9-----10-|
    E|---------------------|----------------------|-------|---------------------|
    
    E|-------|-------|----------------------|-------------------|
    B|-12----|--5----|----------------------|------------3/---5-|
    G|-12----|--4----|--2h---4h---2---------|--2/---4-----------|
    D|-------|--5----|-----------------5----|-------------------|
    A|-------|-------|----------------------|-------------------|
    E|-------|-------|----------------------|-------------------|
    
    E|-5/---7----5----5----|--7/---8----7----5----|-------5-----------|
    B|-5/---7--------------|----------------------|--8---------8----7-|
    G|---------------------|----------------------|-------------------|
    D|---------------------|----------------------|-------------------|
    A|---------------------|----------------------|-------------------|
    E|---------------------|----------------------|-------------------|
    
    E|----------------------|-------|-----------------|--------------|
    B|-8/---10----8----7----|--5----|-----------------|--------------|
    G|----------------------|-------|-----------------|--------------|
    D|----------------------|-------|--5/---7---------|--------------|
    A|----------------------|-------|------------7----|--2/---4------|
    E|----------------------|-------|-----------------|------------0-|…
  • Asus2 A7sus Asus2
    A+---0-0-0-------0-3-3-0---------------------------------------------------
    E+---0-0-0-------0-3-3-0--------------0---------------0-------0--------0---
    B#---2-2-2-------2-0-0-0------------0---0-----0-0h2-----0-2----------------
    G+---2-2-2-0h2---2-2-2-2------2-2h4-------4p2-0-0h2-2---0-2-2--------2-----
    D+-0-----------0------------0------------------------------------0-3-------
    A+-------------------------------------------------------------------------
    
    
    1)…
  • (0:36)
    E|---------|
    B|---------|
    G|---------|
    D|--7-/-12-|
    A|---------|
    E|---------|
    
    (0:49)
    E|-------------------------|
    B|-------------------------|
    G|--9b(10)--9--9b(10)--7~~-|
    D|-------------------------|
    A|-------------------------|
    E|-------------------------|
    
    (0:56)
    E|-------------|
    B|-------------|
    G|-------------|
    D|--7-/-10-⁄-7-|
    A|-------------|
    E|-------------|
    
    (1:03)
    E|-------------------------------------------------------10-|
    B|----------8--6----------8--6----------8--6----9--8--6-----|
    G|-----5h7------------5h7-----------5h7---------------------|
    D|--7---------------7-------------7-------------------------|
    A|----------------------------------------------------------|
    E|----------------------------------------------------------|
    
    (1:09)
    E|------------------------------------------------------------|
    B|----------8--6-----------8--6-----------8--6----6--9--8--10-|
    G|-----5h7------------5h7------------5h7----------------------|
    D|--7--------------7--------------7---------------------------|
    A|------------------------------------------------------------|
    E|------------------------------------------------------------|
    
    (1:22)
    E|---------------------|
    B|------------[8]--[6]-|
    G|--[5]--[7]-----------|
    D|---------------------|
    A|---------------------|
    E|---------------------|
    
    (1:29)
    E|-----------------|
    B|-------13--------|
    G|--12b------[14]~-|
    D|-----------------|
    A|-----------------|
    E|-----------------|
    
    (2:00)
    E|-------------------------------------------------------10-|
    B|----------8--6----------8--6----------8--6----9--8--6-----|
    G|-----5h7------------5h7-----------5h7---------------------|
    D|--7---------------7-------------7-------------------------|
    A|----------------------------------------------------------|
    E|----------------------------------------------------------|
    
    (2:06)
    E|------------------------------------------------------------|
    B|----------8--6-----------8--6-----------8--6----6--9--8--10-|
    G|-----5h7------------5h7------------5h7----------------------|
    D|--7--------------7--------------7---------------------------|
    A|------------------------------------------------------------|
    E|------------------------------------------------------------|
    
    Solo:
    
    (2:12)
    E|-----------------------------------------15b--15~~--13h15-----------|
    B|--------------6p5-------/15~~~--18~~~------------------------[15]~~-|
    G|---------5h7-------7p5----------------------------------------------|
    D|--7--7--------------------------------------------------------------|
    A|--5--5--------------------------------------------------------------|
    E|--------------------------------------------------------------------|
    
    (2:48)
    E|-----------------------------------------------8h10--10p8---------|
    B|------------------8-8/10---10--10--10h12--10---------------10--10-|
    G|--5--7--7--7--7---------------------------------------------------|
    D|------------------------------------------------------------------|
    A|------------------------------------------------------------------|
    E|------------------------------------------------------------------|
    
    (2:54)
    E|------------------------------------------------------------------8-|
    B|--8h10p8------8------------------------------6----10--10--8--10-----|
    G|----------10-----10--7--7----5--7--7--5--7--------------------------|
    D|--------------------------------------------------------------------|
    A|--------------------------------------------------------------------|
    E|--------------------------------------------------------------------|
    
    (2:57)
    E|--13h15--13p10----------------------|
    B|----------------13p10---------------|
    G|-----------------------12h14--------|
    D|------------------------------15p12-|
    A|------------------------------------|
    E|------------------------------------|
    
    (3:00)…
  • Capo: 4th fret.
    3/4 time
    Intro:
    
    =========== 4th fr (capo)
    | | | | | |
    -----------
    | | | | | |
    --X-X------
    | | | | | |
    ----------X
    | | | | | |
    -----------
    | | | | | |
    
    [4 bars,
    strum = whole chord
    2-and-3-and = 3rd,2nd,1st…
  • Intro
    E---|--------R--------|-R-----------------|-----------------------|-R----------|
    D-4:|--------E--------|-E-----------------|-----------------------|-S----------|
    A-4:|--------S--------|-S--------0--------|-2----2--0-----0--0----|-E--------0-|
    E---|--------T--------|-T-----------------|------------3----------|-T----------|
    
    TIE
    G|-----------------------|---------------------|------------------------|-R-|
    D|-----------------------|---------------------|------------------------|-E-|
    A|-0----4--0--2----2--2--|-(2)--------0--------|-0--2--0--------0--2----|-S-|
    E|-----------------------|---------------------|----------3--3----------|-T-|
    
    TIE
    G|----------|---------------------|---------------------|----------------------|
    D|----------|---------------------|---------------------|----------------------|
    A|-0--------|------2---------0----|-(0)--------0--------|-0--2--0--------0--2--|
    E|----------|-3---------3---------|---------------------|----------3--3--------|
    
    TIE
    G|-R----------------|-----------------------|---------------------|------------|
    D|-E----------------|-----------------------|---------------------|------------|
    A|-S-------0--------|-0----4--0--2----2--2--|-(2)--------0--------|-0--2--0----|
    E|-T----------------|-----------------------|---------------------|----------3-|
    
    G|------------|-R-----------------|---------------------||
    D|------------|-E-----------------|---------------------||
    A|----0--2----|-S--------0--------|------2---------0----||
    E|-3----------|-T-----------------|-3---------3---------||
    
    Pre-Verse
    
    |------3------|
    G---|--------R--------|-------------------------|----------2------|------------|
    D-4:|--------E--------|-------------------------|-----------------|------------|
    A-4:|--------S--------|-2--3--2-----3--2--2-----|-0---------------|-0--2--0----|
    E---|--------T--------|----------3-----------3--|-----------------|----------3-|
    
    G-------------|----------2--------|-------------------------||
    D-------------|-------------------|-------------------------||
    A-------2-----|-0-----------------|-2--3--2-----3--2--2-----||
    E-3--3-----3--|-------------------|----------3-----------3--||
    Bass…
  • Capo 2, or transpose up 1 full step.
    Lyrics not guaranteed!
    
    
    Intro Lick:
    
    C G Em A Asus2
    e|---------------|---------------|----------------|---------------|---0-->
    B|---------------|---------------|----------------|---------------|---0-->
    G|--0h2-p0----0--|---------------|----------------|---------------|---2-->
    D|---------------|--0h2-p0-------|--0--------0h2--|------------2--|---2-->
    A|--3->----------|------------3--|-----------0h2--|--0---------0--|---0-->
    E|---------------|--3->----------|-------3--------|-------3----0--|------
    x…
  • G|-----------------------------------5--------------------|
    D|---7-------7--------------------7----------7--5---------|
    A|-----5--8-----8--7--8--5--7--8--------4-7-------8--5----|
    E|--------------------------------------------------------|
    
    G|--------------------------------------5------------------|
    D|------7-------7--------------------7-----8-------7-------|
    A|---8----5--8-----8--7--8--5--7--8-------------5-----5----|
    E|-------------------------------------------5-------------|
    
    2nd…
  • Intro:
    
    Em Em7 Am C Em Em7 Am C B Em
    e|----0---0---0---0---|----0---0---0---0---|---2------0---|
    B|----0---0---1---1---|----0---0---1---1---|---4------0---|
    G|----0---0---2---0---|----0---0---2---0---|---4------0---|
    D|----2---0---2---2---|----2---0---2---2---|---4------2---|
    A|----------------3---|----------------3---|---2------2---|
    E|--------------------|--------------------|----------0---|
    
    
    Verse…
  • -----------------------------7-7----------------------------7-7---------------
    --7-7----7--14⁄5-5-----4-5/7-----7-7----7--14⁄5-5-----4-5/7-----7-7----7------
    -------7-----------3/5----------------7-----------3/5----------------7--------
    ------------------------------------------------------------------------------
    
    
    ------------------7-7----------------------------7-7--------------------------
    -14⁄5-5-----4-5/7-----7-7----7--14⁄5-5-----4-5/7-----7-7----7-14⁄5-5--7-------
    --------3/5----------------7-----------3/5----------------7-------------3-3-3-
    ------------------------------------------------------------------------------
    
    
    ------------------------------------------------------------------------------
    ------------------------------------------------------------------------------
    -5--5--------8-8--5--3-3-3-5--5--------8-8--5--3-3-3-5--5---------8-8--5--3---
    ------------------------------------------------------------------------------
    
    
    ------------------------------------------------------------------------------
    ------------------------------------------------------------------------------
    -3-3-5--5---------8-8-8-8-2---------------------------------------------------
    ------------------------------------------------------------------------------
    
    
    ---------------------2-2h4-4---------------------2-2h4-4----------------------
    -------0-0h2--2-2h4-----------------0-0h2--2-2h4----------------0-0h2--2-2h4--
    -0h2-2------------------------0h2-2-----------------------0h2-2---------------
    ------------------------------------------------------------------------------
    
    
    -2-2h4-4--------------------------------------------------7-7-----------------
    ----------------0-0h2--2-2h4---7-7----7--14⁄5-5-----4-5/7------7-7----7--14⁄5-
    ----------0h2-2---------------------7-----------3/5-----------------7---------
    ------------------------------------------------------------------------------
    
    
    -------------7-7----------------------------7-7----------------------------7--
    -5-----4-5/7-----7-7----7--14/5-5-----4-5/7-----7-7----7--14⁄5-5-----4-5/7----
    ---3/5----------------7-----------3/5----------------7-----------3/5----------
    ------------------------------------------------------------------------------
    
    
    -7----------------------------------------------------------------------------
    ---7-7----7--14⁄5-5--7--------------------------------------------------------
    --------7---------------3-3-3-5--5--------8-8--5--3-3-3-5--5--------8-8--5----
    ------------------------------------------------------------------------------
    
    
    ------------------------------------------------------------------------------
    ------------------------------------------------------------------------------
    -3-3-3-5--5--------8-8--5--3-3-3-5--5--------8-8-5-4-2------------------------
    ------------------------------------------------------------------------------
    
    
    ---------------------2-2h4-4----------------------2-2h4-4---------------------
    -------0-0h2--2-2h4-----------------0-0h2--2-2h4-----------------0-0h2--2-2h4-
    -0h2-2------------------------0h2-2------------------------0h2-2--------------
    ------------------------------------------------------------------------------
    
    
    --2-2h4-4-------------------------------------5--7--5-------------------------
    -----------------0-0h2--2-2h4--7--7--7-7-7--7----------7-7-7-5-7--7---7-7-7---
    -----------0h2-2----------------------------------------------------7---------
    ------------------------------------------------------------------------------
    
    
    -5--7--5------------5-7-8--9--12-14-12h14-12----------------------------------
    ----------7-7-7-7-7--------------------------14-13--12-10-------10-12--10-----
    ----------------------------------------------------------12-12-----------12--
    ------------------------------------------------------------------------------
    
    
    -----------------------------------------5--7--5-----------------------5--7---
    ----------10-----------------7--7--7-7-7----------7-7-7-5-7--7---7-7-7--------
    -10-12-12----12-10-----10-12-----------------------------------7--------------
    --------------------12--------------------------------------------------------
    
    
    -5----------------------------------------------------------------------------
    ----7-7-7-7-------------------------------------------------------------------
    ------------2-----------------------------------------------------------------
    ------------------------------------------------------------------------------
    
    
    --------------------2-2h4--4--------------------------------------------------
    -------0-0h2--2-2h4-----------------0-0h2--2-2h4--7-7----7--12⁄5-5-----4-5/7--
    -0h2-2------------------------0h2-2--------------------7-----------3/5--------
    ------------------------------------------------------------------------------
    
    
    -7-7---------------------------7-7-----------------------------7-7------------
    -----7-7----7-12⁄5-5-----4-5/7-----7-7----7--12⁄5-5------4-5/7-----7-7----7---
    ----------7----------3/5----------------7------------3/5----------------7-----
    ------------------------------------------------------------------------------
    
    
    ------------------------------------------------------------------------------
    -12⁄5-5--7--------------------------------------------------------------------
    ------------3-3-3-5--5--------8-8--5--3-3-3-5--5--------8-8--5--3-3-3-5--5----
    ------------------------------------------------------------------------------
    
    
    ------------------------------------------------------------------------------
    ------------------------------------------------------------------------------
    ------8-8--5--3-3-3-5--5--------8-8-5-4-2-------------------------------------
    ------------------------------------------------------------------------------
    
    
    ----------------------2-2h4-4----------------------2-2h4-4--------------------
    --------0-0h2--2-2h4-----------------0-0h2--2-2h4-----------------------------
    --0h2-2------------------------0h2-2------------------------------------------
    ------------------------------------------------------------------------------…
  • [Capo 2]
    
    F# B A C#m C#m B A C#m C#m B A
    
    D Bm
    The leaded window opened to move the dancing candle flame
    Em G D A G A Bm
    And the first Moths of summer suicidal came, oh, suicidal came.
    D Bm
    And a new breeze chattered in…
  • CAPO III
    
    
    Moderately
    Eb Cm
    6 >
    - _____ _____ ___ ___ __ ___ ___ ___
    8 | | | | | | `/ | | `/ | | } | `/ | | `/ | | `/ | |
    G|-0-0-0-0-0-0-|---0-0----0-0-|-----0-----0-0-|---0-0----0-0---|
    D|-1-1-1-1-1-1-|-3------1-----|-0---1-----1-1-|---1-1----1-1---|
    Bb|-0-0-0-0-0-0-|--------------|---2-------2-2-|-0-2-2-h--2-2---|
    F|-0-----------|--------------|---------------|---0----2-----0-|
    C|-------------|--------------|---------3-----|------------3---|
    G|-------------|--------------|---------------|----------------|
    |.…
  • Chords used in this song:
    
    G: D: Bb: F: Cadd9 Am
    
    E--3- E--2- E---- E--1- E--3- E--0-
    B--3- B--3- B--3- B--1- B--3- B--1-
    G--0- G--2- G--3- G--2- G--0- G--2-
    D--0- D--0- D--3- D--3- D--2- D--2-
    A--2- A---- A--1- A--3- A--3-…
  • Intro:
    (Guitar 2)
    (Riff 1)
    E-----------------------------------------------------------
    B-----------------------------------------------------------
    G-----------------------------------------------------------
    D----------------------------5--------------------------5---
    A-----------5-6-7--7--7p5---------------5-6-7--7--7p5-------
    E-----5-6-7---------------7-------5-6-7---------------7-----
    
    
    
    (Guitar…
  • Verse 1:
    
    Bm Em F#7
    Walking through forests of palm tree apartments
    Bm Em F#7
    scoff at the monkeys who live in their dark tents
    F# A Bm A
    down by the waterhole drunk every Friday
    F# A Bm A
    eating their nuts saving their…
  • D C A G
    Oh father high in heaven
    
    D C G
    smile down upon your son. Yeah!
    
    D C G Bb A G
    Whose busy with his money games Oh! his women and his gun.
    
    
    Oh Jesus save me!
    E|-----------------
    B|-----------------
    G|-----------------…
  • 0:01
    G---|--------------------------|--------------------------|---------------------
    D---|--------------------------|--------------------------|---------------------
    A---|--------------------------|--------------------------|---------------------
    E---|--7--7--7--7--7--7--7--7--|--7--7--7--7--7--7--7--7--|--8--8--8--8--8------
    
    
    
    G------------|--------------------------|--------------------------|------------
    D------------|--------------------------|--------------------------|------------
    A------------|--------------------------|--5--5--5--5--5--5--5--5--|--5--5------
    E---8--8--8--|--8--8--8--8--8--8--8--8--|--------------------------|------------
    
    
    
    G---------------------|--------------------------|------------------------------
    D---------------------|--------------------------|------------------------------
    A---5--5--5--5--5--5--|--7--7--7--7--7--7--7--7--|--8--8--8--8--8--8--8--8------
    E---------------------|--------------------------|------------------------------
    
    
    
    G---||------------------------------------|-------------------------------------
    D---||*-----------------------------------|--8--------8--------8--------8--8----
    A---||*--7--------7--------7--------7--7--|--------8--------8--------8----------
    E---||---------7--------7--------7--------|-------------------------------------
    
    
    
    G----||--5--------5--------5--------5--5--|-------------------------------------
    D---*||--------5--------5--------5--------|--6--------6--------6--------6--6----
    A---*||-----------------------------------|--------6--------6--------6----------
    E----||-----------------------------------|-------------------------------------
    
    
    
    G---|--7--------7--------7--------7--7--|--5--------5--------5--------5--5------
    D---|--------7--------7--------7--------|--------5--------5--------5------------
    A---|-----------------------------------|---------------------------------------
    E---|-----------------------------------|---------------------------------------
    
    
    
    G---|--5--------5--------5--------5--5--|---------------------------------------
    D---|--------5--------5--------5--------|--8--------8--------8--------8--8------
    A---|-----------------------------------|--------8--------8--------8------------
    E---|-----------------------------------|---------------------------------------
    
    
    
    G---|--------------------------------|------------------------------------------
    D---|--------------------------------|------------------------------------------
    A---|/12-----12-----12-----12-----12⁄|--7-----7-----7-----7-----7-----7---------
    E---|--------------------------------|------------------------------------------
    
    
    0:59
    G---||---------------------|--------------------|-----------------------|-------
    D---||*--------------------|--------------------|-----------------------|--7----
    A---||*--7-----7--7--------|--8-----8--8--------|--10-----10--10--------|-------
    E---||---------------------|--------------------|-----------------------|-------
    
    
    
    G----------------------------9-----------------||--||---------------------------
    D------7--7-----7--10-----7--------7--10------*||--||*-----------------2--------
    A-----------------------------------------10--*||--||*--0-----0--3--0-----0-----
    E----------------------------------------------||--||---------------------------
    
    
    3x…
  • e e e e e e q q 6x
    |---------r-------------------10------||
    |-10------e--------------------------*||
    |-----10--s---------10--8------------*||
    |---------t--8--11--------------------||
    
    
    e e e e q q q
    ||---------r---------8-----------|
    ||*--------e-----10--------8-----|
    ||*--8--8--s--8------------------|
    ||---------t---------------------|
    
    
    e…
  • e--------------------------------
    b--------------------------------
    g--------------------------------
    D-9-9----12--7--9----------------
    A-7-7----10--5--7----------------
    E------------------0-0-0-0-0-0-0-
    . . . . . . .
    
    5x,…
  • e|----------------------------------|
    b|----------------------------------|
    g|----------------------------------|
    d|-7--8-7-5-7--8-5-10-8-7--8-7-5--8-|
    a|-5--6-5-3-5--6-7-8--6-5--6-5-3--6-|
    E|----------------------------------|
    
    e|----------------------------------|
    b|----------------------------------|…
  • G---|--------------------------------------|------------------------------------
    D---|--------------------------------------|------------------------------------
    A---|--2-----2--2-----2--2-----2--2--------|------------------------------------
    E---|-----------------------------------5--|--3-----3--3--2--3--5-----0--2------
    
    
    
    G------2--|--4-----------------------------------|------------------------------
    D---4-----|--------------------------------------|------------------------------
    A---------|--------2--2-----2--2-----2--2--------|------------------------------
    E---------|-----------------------------------5--|--3-----3--3--2--3--2---------
    
    
    
    G---------------|--------------------------------------|------------------------
    D---------------|--------------------------------------|------------------------
    A------1--2--4--|--2-----2--2-----2--2-----2--2--------|------------------------
    E---2-----------|-----------------------------------5--|--3-----3--3--2--3------
    
    
    
    G------------------2--|--4-----------------------------------|------------------
    D---------------4-----|--------------------------------------|--5---------------
    A---------------------|--------2--2-----2--2-----2--2-----0--|------------------
    E---5-----0--2--------|--------------------------------------|-----3------------
    
    
    0:15
    G---------------|--------------------7-----11-----9--7--|-----------------------
    D---4-----------|--------9--9--7--9---------------------|--9-----9--9--7--9-----
    A---------------|---------------------------------------|-----------------------
    E------2--------|--7------------------------------------|-----------------------
    
    
    
    G----------------7--9--|--11--------------7--7--9--11--11--9--7--|--11----------
    D-------9--7--9--------|---------7--7--9-------------------------|--------------
    A---10-----------------|-----------------------------------------|--------------
    E----------------------|-----------------------------------------|--------------
    
    
    
    G---11--11--9--11------------------7--|--9-----9--9--7--------------------------
    D------------------------7--9--11-----|-----------------11--7-----7--7--9-------
    A------------------9------------------|-----------------------------------------
    E-------------------------------------|-----------------------------------------
    
    
    
    G-------|----------------------------------------------|---------11--11--9------
    D---11--|--12-----12--12--10--9-----------------9--12--|--12--------------------
    A-------|------------------------10--9--10--10---------|------------------------
    E-------|----------------------------------------------|------------------------
    
    
    
    G------2-----------------|--------------------------|-----------------7---------
    D---12⁄---4--2--0--2--4--|--4-----------7-----------|-----9--9--7--9------------
    A------------------------|--------------------------|---------------------------
    E------------------------|-----2-----------5--------|---------------------------
    
    
    
    G---11-----9--7--|---------------------------------7--9--|--11------------------
    D----------------|--9-----9--9--7--9------9--7--9--------|---------7--7--9------
    A----------------|--------------------10-----------------|----------------------
    E----------------|---------------------------------------|----------------------
    
    
    
    G---7--7--9--11--11--9--7--|--11-----11--11--9--11------------------7--|--9-----
    D--------------------------|------------------------------7--9--11-----|--------
    A--------------------------|------------------------9------------------|--------
    E--------------------------|-------------------------------------------|--------
    
    
    
    G------9--9--7-------------------------|----------------------------------------
    D---------------11--7-----7--7--9--11--|--12-----12--12--10--9------------------
    A--------------------------------------|------------------------10--9--10-------
    E--------------------------------------|----------------------------------------
    
    
    
    G--------------|---------11--11--9-----2-----------------|----------------------
    D-------9--12--|--12----------------12⁄---4--2--0--2--4--|--2-----------4-------
    A---10---------|-----------------------------------------|----------------------
    E--------------|-----------------------------------------|-----0-----------2----
    
    
    0:47
    G---------------|-----------------------|---------------------------------------
    D---------------|-----------------------|---------------------------------------
    A---------------|-----------------------|--2-----2--2-----2--2-----2--2---------
    E---2--2--2-----|--------3-----5-----5--|--------------------------------5------
    
    
    
    G------|--------------------------------------|---------------------------------
    D------|--------------------------------------|-----------------4---------------
    A------|--------------------------------------|--5-----5--5---------------------
    E------|--3-----3--3--2--3--5-----5--5-----5--|--------------------2-----2------
    
    
    
    G------------|--------------------------------------|--------------------|------
    D------------|--------------------------------------|--------------------|------
    A------------|--------------------------------------|--5-----5--4-----5--|------
    E---2-----2--|--3-----3--3--2--3--5-----5--5-----5--|--------------------|------
    
    
    
    G--------------------------|-----------------------------------------|----------
    D---------5----------------|-----------------------------------------|----------
    A-------------------/12⁄---|--------------2--2--2--2--2--2--2--------|--2-------
    E---3-----------3----------|--5-----5--------------------------------|----------
    
    
    
    G---------------------------------|-----------------------------------2--|------
    D---------------------------------|--------------------------------4-----|------
    A---2--2-----2--2-----2--2--------|--------------------------------------|------
    E------------------------------5--|--3-----3--3--2--3--5-----0--2--------|------
    
    
    1:10
    G---4-----------------------------------|-----------------------|---------------
    D---------------------------------------|--5-----------4--------|-----9--9------
    A---------2--2-----2--2-----2--2-----0--|-----------------------|---------------
    E---------------------------------------|-----3-----------2-----|---------------
    
    
    
    G---------7-----11-----9--7--|---------------------------------7--9--|--11------
    D---7--9---------------------|--9-----9--9--7--9------9--7--9--------|----------
    A----------------------------|--------------------10-----------------|----------
    E----------------------------|---------------------------------------|----------
    
    
    
    G---------------7--7--9--11--11--9--7--|--11-----11--11--9--11------------------
    D------7--7--9-------------------------|------------------------------7--9------
    A--------------------------------------|------------------------9---------------
    E--------------------------------------|----------------------------------------
    
    
    
    G-------7--|--9-----9--9--7-------------------------|---------------------------
    D---11-----|-----------------11--7-----7--7--9--11--|--12-----12--12--10--9-----
    A----------|----------------------------------------|---------------------------
    E----------|----------------------------------------|---------------------------
    
    
    
    G-------------------------|---------11--11--9-----2-----------------|-----------
    D------------------9--12--|--12----------------12⁄---4--2--0--2--4--|--2--------
    A---10--9--10--10---------|-----------------------------------------|-----------
    E-------------------------|-----------------------------------------|-----0-----
    
    
    1:26
    G---------------------------|-----------------------|---------------------------
    D---------4-----------------|-----------------------|---------------------------
    A---------------------------|-----------------------|--2-----2--2-----2--2------
    E------------2--2--2--2-----|--------3-----5-----5--|---------------------------
    
    
    
    G------------------|--------------------------------------|---------------------
    D------------------|--------------------------------------|---------------------
    A------2--2--------|--------------------------------------|--5-----5--5---------
    E------------5-----|--3-----3--3--2--3--5-----5--5-----5--|---------------------
    
    
    
    G------------------------|--------------------------------------|---------------
    D---4--------------------|--------------------------------------|---------------
    A------------------------|--------------------------------------|--5-----5------
    E------2-----2--2-----2--|--3-----3--3--2--3--5-----5--5-----5--|---------------
    
    
    
    G------------|-------------------------|----------------------------------------
    D------------|--5-----------5----------|----------------------------------------
    A---4-----5--|------------------/12⁄---|--------------2--2--2--2--2--2--2-------
    E------------|--------3----------------|--5-----5-------------------------------
    
    
    
    G---|--------------------------------------|------------------------------------
    D---|--------------------------------------|------------------------------------
    A---|--2-----2--2-----2--2-----2--2--------|------------------------------------
    E---|-----------------------------------5--|--3-----3--3--2--3--5-----0--2------
    
    
    
    G------2--|--4-----------------------------------|------------------------------
    D---4-----|--------------------------------------|--5-----------4---------------
    A---------|--------2--2-----2--2-----2--2-----0--|------------------------------
    E---------|--------------------------------------|-----3-----------2------------
    
    
    1:49
    G---|--------------------------|--------------------------|---------------------
    D---|--2-----2-----5-----------|--5-----5-----------------|---------------------
    A---|--------------------3-----|--------------5-----2-----|--3-----5------------
    E---|--------------------------|--------------------------|---------------------
    
    
    
    G------------|--------7-----------------|---------------------------------------
    D---2--4-----|--5-----------------------|-----------2-----2--2--2--2--2---------
    A------------|--------------5-----2-----|--3-----5------------------------------
    E------------|--------------------------|--------------------------------0------
    
    
    
    G------------------|--------------------------|--------------------------|------
    D------------------|--5-----5-----8-----------|--8-----8-----------------|------
    A------------------|--------------------6-----|--------------8-----5-----|------
    E---0--0--0--0--0--|--------------------------|--------------------------|------
    
    
    
    G---------------------------|--------10-----------------|-----------------------
    D------------------5--7-----|--8------------------------|--------3--5-----5-----
    A---6-----8-----------------|---------------8-----5-----|--6--------------------
    E---------------------------|---------------------------|-----------------------
    
    
    
    G---------------------------------|--------------------------------------|------
    D---5--5--5--5--------------------|--------------------------------------|------
    A---------------------------------|--------------------------------------|------
    E---------------3--3--3--3--3--3--|--5-----5--5-----5--5-----5--5-----5--|------
    
    
    
    G---------------------------------------|---------------------------------------
    D---------------------------------------|---------------------------------------
    A---------------------------------------|---------------------------------------
    E---5-----5--5-----5--5-----5--5-----5--|--5-----5--5-----5--5-----5--5---------
    
    
    
    G------|--------------------------------------|--------------------------|------
    D------|--------------------------------------|--------------------5-----|------
    A------|--------------------------------------|--7-----5-----7-----------|------
    E---3--|--1-----1--1--3--1--0-----0--0-----0--|--------------------------|------
    
    
    
    G---------------------------------------|--------------------------|------------
    D---------------------------------------|--------------------5-----|------------
    A---7-----7--7-----7--7-----7--7-----7--|--7-----5--------7--------|--7---------
    E---------------------------------------|--------------------------|------------
    
    
    
    G---------------------------------|--------------------------------------|------
    D---------------------------------|--------------------------------------|------
    A---7--7-----7--7-----7--7-----7--|--7-----7--7-----7--7-----7--7-----5--|------
    E---------------------------------|--------------------------------------|------
    
    
    
    G---------------------------------------|-------------------------|-------------
    D---------------------------------------|-------------------------|-------------
    A---3-----3--3--2--3--5--3--------2--5--|--7-----7--------7--7⁄---|--3--3-------
    E---------------------------5--5--------|-------------------------|-------------
    
    
    2:34
    G------------------|-----------------------------|-----------------------7------
    D------------------|-----------------------------|--5-----------5---------------
    A------2--2--------|-----2--2--2-----2-----2-----|------------------------------
    E------------------|--------------5--------------|-----3-----------3------------
    
    
    
    G---9--|--11--------------7--7--9--11--11--9--7--|--11-----11--11--9--11--------
    D------|---------7--7--9-------------------------|------------------------------
    A------|-----------------------------------------|------------------------9-----
    E------|-----------------------------------------|------------------------------
    
    
    
    G----------------7--|--9-----9--9--7-------------------------|------------------
    D------7--9--11-----|-----------------11--7-----7--7--9--11--|--12-----12-------
    A-------------------|----------------------------------------|------------------
    E-------------------|----------------------------------------|------------------
    
    
    
    G------------------------------------|---------11--11--9-----2------------------
    D---12--10--9-----------------9--12--|--12----------------12⁄---4--2--0--2------
    A--------------10--9--10--10---------|------------------------------------------
    E------------------------------------|------------------------------------------
    
    
    2:50
    G------|--------------------------------||---------------------|----------------
    D---4--|--2-----------4-----------------||*--------------------|----------------
    A------|--------------------------------||*--------------------|--2-----2--2----
    E------|-----0-----------2--2--2--2-----||------3-----5-----5--|----------------
    
    
    
    G---------------------------|--------------------------------------|------------
    D---------------------------|--------------------------------------|------------
    A------2--2-----2--2--------|--------------------------------------|--5---------
    E---------------------5-----|--3-----3--3--2--3--5-----5--5-----5--|------------
    
    
    
    G---------------------------------|--------------------------------------|------
    D------------4--------------------|--------------------------------------|------
    A---5--5--------------------------|--------------------------------------|------
    E---------------2-----2--2-----2--|--3-----3--3--2--3--5-----5--5-----5--|------
    
    
    
    G---------------------|-------------------------|-------------------------------
    D---------------------|--5-----------5----------|-------------------------------
    A---5-----5--4-----5--|------------------/12⁄---|--------------2--2--2--2--2----
    E---------------------|--------3----------------|--5-----5----------------------
    
    
    Repeat…
  • --2--------------2-----3-----2p0-------------------------------
    --3--------3s/5----------------------3--------3---2---3---5----
    --2-----2-------------------------------------2----------------
    --0-----------------0-----0-------0----------------------------
    --0------------------------------------------------------------
    ---------------------------------------------------------------
    
    ---------------------------------------------------------0-----
    -------------7----------5------------3------3---5---7----0-----
    ------------(7)--------(5)----------(4)-----4---4---7----0-----
    ----5-s/-7---------5---------0--0------------------------2-----
    ---------------------------------------------------------2-----
    ---------------------------------------------------------------
    
    ---0--0--------------0-----------------------------------------
    ---------0-0-0-2-3---2-----------------------------------------
    ---------------------2---6--5--6-s/--9--9--8--9--s/--14--14----
    ---------------------2-----------------------------------------
    ---------------------0-----------------------------------------
    ---------------------------------------------------------------
    
    ---------------------------------------------------------------
    -------------14------------------------------------------------
    ---13--14------------------------------------------------------
    ---------------------------------------------------------------
    -----------0---------------------------------------------------
    ---------------------------------------------------------------…
  • A5 E5 D5 C5 D5 A5 E5 D5 F5 G5 A5 E5 D5 C5 D5 A5 E5 D5 F5 G5
    
    A5 E5 D5 C5 D5
    Winds howled, rains spit down
    A5 E5 D5 F5 G5
    All these nights playing precious games
    A5 E5 D5 C5 D5
    Cheap hotel in some seaboat town
    A5 E5 D5 F5…
  • 0:00
    G---|--------------------------------|--------------------------------|---------
    D---|--------------------------------|--------------------------------|--5------
    A---|--------------------------------|--------------------------------|---------
    E---|--3-----x--x--3--3-----x--x--3--|--3-----x--x--3--3-----x--x--3--|---------
    
    
    
    G------------------|--------------------------|--------------------|------------
    D------5--5--------|--3-----3--3--5-----------|-----------3-----5--|-----3------
    A---------------5--|-----------------5-----5--|--------------------|--5---------
    E------------------|--------------------------|--6-----6-----------|------------
    
    
    
    G------------------|--------------------|--------------------------|------------
    D------4--5--------|--5-----5--5--------|--3-----3--3--5-----------|------------
    A---5--------------|-----------------5--|-----------------5-----5--|------------
    E------------------|--------------------|--------------------------|--6---------
    
    
    
    G---------------|-----------------------|----2----4--5-----------|--------------
    D------3-----5--|--3--------4--5-----2--|/3---/5--------------3--|--------------
    A---------------|-----6--5--------------|------------------------|-----5--------
    E---6-----------|-----------------------|------------------------|--------------
    
    
    
    G------------------|--7--------------2--|--------------5-----------|------------
    D---2--3--5-----7--|--------------------|-----2--3--5-----------2--|--4---------
    A------------------|--------5--3--------|--5--------------3--------|------------
    E------------------|--------------------|--------------------------|------------
    
    
    
    G---------2--2--1-----------|--------------------|-----------------------|------
    D---2--------------4--------|--2-----------------|--2-----------------2--|------
    A------------------------4--|--------------------|--------5--4--2--------|------
    E---------------------------|--------5--4--2-----|-----------------------|------
    
    
    
    G---------------------------|-----------------|---------------------------------
    D------------2-----4--2--4--|--------0-----2--|---------------------------------
    A---2--4--5-----0-----------|--2--4-----2-----|--0-----0--0-----0--0-----0------
    E---------------------------|-----------------|---------------------------------
    
    
    0:34
    G------------|--------------------------------|---------------------------------
    D------------|--------------------------------|--3-----3------------------------
    A---0-----0--|--------------------------------|-----------6-----5--0--1--3------
    E------------|--3-----x--x--3--3-----x--x--3--|---------------------------------
    
    
    
    G------|-------------------------------------|----------------------------------
    D------|----------------5--3-----3--3--------|----------------------------------
    A---0--|--1-----1--3/5--------------------6--|--5--6--5--------------3--5--6----
    E------|-------------------------------------|-----------2--3-----6-------------
    
    
    
    G---|--------------------------------|--------------------------------|---------
    D---|--5-----x--x--5--5-----x--x--5--|--3-----3-----------------------|---------
    A---|--------------------------------|-----------6-----5-----x--3--0--|--1------
    E---|--------------------------------|--------------------------------|---------
    
    
    0:49
    G-----------------------------------|--------------------------|----------------
    D--------------5--3-----3--3--------|--------------------------|--------3-------
    A------1--3/5--------------------6--|--5--6--5--------------5--|--6--3-----0----
    E-----------------------------------|-----------2--3-----------|----------------
    
    
    Keyboard
    G------------|-----------------5--|--5-----3--2h3p2-----------------------------
    D------------|--------------------|------------------5--3-----------------------
    A---1--------|--------------------|---------------------------------------------
    E------------|--------------------|---------------------------------------------
    
    
    Keys,…
  • [Capo 7]
    
    Dm7 D C G D
    
    D A4 A
    I'm going up the 'Pool, from down the smoke below
    D A4 A
    to taste me mum's jam Sarnis and see our Aunty Flo,
    Bm A4 A G Bm A4 A G
    The candy floss salesman watches ladies in the sand
    C G Bb C
    down…
  • e|------------------------------------------------------|
    B|---5--3----------5--3----------5--3-------------------|
    G|---5--3----------5--3----------5--3-------------------|
    D|---5--3---5--5---5--3---5--5---5--3-------------------|
    A|----------5--5----------5--5---------7-8--------------|
    E|----------3--3----------3--3---------5-6---6--5-4-3---|
    
    
    e|------------------------------------------------------|
    B|---5--3----------5--3----------5--3-------------------|
    G|---5--3----------5--3----------5--3-------------------|
    D|---5--3---5--5---5--3---5--5---5--3-------------------|
    A|----------5--5----------5--5---------7-8--------------|
    E|----------3--3----------3--3---------5-6---6--5-4-3---|
    
    
    riff…
  • Intro: F#
    
    then riff...
    (0:38)
    e|------------------------------
    B|--------5---------------------
    G|--4-6-7---6-4-4v-------------- 4.5 times
    D|------------------------------
    A|------------------------------
    E|------------------------------
    
    Verse…
  • Intro
    E Bm7 (B EE single notes) Bm7 (repeat)
    
    E Bm7 (B EE single notes) Bm7 D
    Nobody sees her here, here her eyes are slowly closing
    E Bm7 (B EE single notes) Bm7 D Eb E
    If she should want some peace she sits there without…
  • Drums                  0:04                            2x
    G---|-----------------||-----------12---------10------||------------------------
    D---|-----------------||*--10--10---------10---------*||--10--8-----------------
    A---|-----------------||*----------------------------*||------------10----------
    E---|-----------------||------------------------------||------------------------…
  • F C G
    I count the hours, you count the days together,
    F G F 
    we count the minutes in this passion play.
    F C G
    Walk dusty miles, and I ride that train,
    F C G F 
    on a first class ticket, just to be with you again.…
  • Intro: play twice
    
       Am ----| C------
    E|---------------------------------------------------------------------
    B|-----1--------1------------------------------------------------------
    G|---2--------0----------0--------0--------0---------------------------
    D|-2-----2--------2----0--------2--------0---------0-------------------
    A|-0--------3--------2------3-3------2-2---------0---------------------
    E|---------------------------------------------2-----------------------
    
    
    E|------------------------0-----------------0-------------------------
    B|--------------------------1-0----------0-----------------------------
    G|----------------------1----------2-1-1-------------------------------
    D|-------0---2-2/3-2---------------------------------------------------
    A|-----0---------------------------------------------------------------
    E|-1-1-----------------------------------------0----------------------
    
    
    Verse:…
  • Tuning: Standard
    
    e|----------------------------------------------------|
    B|----------------------------------------------------|
    G|------5---------------------------------------------|
    D|--6-7---6-7-----------------------------------------|
    A|------------6-7-5-7---------------------------------|
    E|--------------------5-------------------------------|…
Наверх