Аккорды «Jimmie's Chicken Shack»

Jimmie's Chicken Shack
Jimmie's Chicken Shack - американская альтернативная рок-группа из Аннаполиса, штат Мэриленд. Они появились благодаря MTV, как одна из первых групп эпохи пост-гранжа. Jimmie's Chicken Shack - американская альтернативная рок-группа из Аннаполиса, штат Мэриленд. Они появились благодаря MTV, как одна из первых групп эпохи пост-гранжа. Скрыть...
Популярные аккорды Jimmie's Chicken Shack:
алфавиту | просмотрам | случайно
  • Intro
    G|---------------------------------------------------|
    D|---------------------------------------------------|
    A|-----4----5--------------4----5--------------------|
    E|-5-------------1----5--------------1---------------|
    B|---------------------------------------------------|
    
    
    Riff…
  • Verse
    G|--------------------------------------------------------|
    D|--------------------------------------------------------|
    A|-----------0--------------------------------------------|
    E|-0---1-1-3----------------------------------------------|
    B|--------------------------------------------------------|
    The…
  • Chords:
    E     G     A     Dbm
    0     3     0     4
    0     3     2     5
    1     0     2     6
    2     0     2     6
    2     2     0     4
    0     3     x     4
    gtr.1(acoustic)
    
    
    intro/verse
      E      G      A
     -0------3------0---------------------|…
  • Intro
    G|--------------------------------------------------------|
    D|--------------------------------------------------------|
    A|-------------0-0---3-5----------------------------------|
    E|-3---3---3-3-----0--------------------------------------|
    B|--------------------------------------------------------|
    
    
    Next…
  • Main - During verse
    G|--------------------------------------------------------|
    D|-----------3--5-----------------------------------------|
    A|-----5--3--------5--3-----------------------------------|
    E|--3--------------------1-1------------------------------|
    B|--------------------------------------------------------|
    
    
    Chorus
    G|--------------------------------------------------------|
    D|--------------------------------------------------------|
    A|--------------------------------------------------------|
    E|-3-3-0-6--0-3-3-0-6--0-3-3-0-6--0-3---------------------|
    B|--------------------------------------------------------|
    
    
    Breakdown…
  • Main Riff
      (wish i could...)  (...here, In this insect...)
    G|-----------------|--------------------------------------|
    D|-6---6---6---0---|-9---9---9---0---6---6---6---0--------|
    A|-----------------|--------------------------------------|
    E|---0---0---6---0-|---0---0---6---0---0---0---6---0------|
    B|-----------------|--------------------------------------|
    
    It's…
  • G|--------------------------------------------------------|
    D|-----------4--4-4----------0-2---2-0--------------------|
    A|-2*--2*-2*--------3--3-3-3-----------2------------------|
    E|--------------------------------------------------------|
    B|--------------------------------------------------------|…
  • Drop-D Tuning
    
    
    Intro *Little Chorus/Delay Effects Guitar 1
    E|----------------------------------------------------|
    B|----------------------------------------------------|
    G|----------------------------------------------------|
    D|-------6------2------2-------2------2------2------2-|
    A|------------4------2-------2------2------2------2---|
    D|-4-4-4----4------2-----0h2------2------2------2-----|
    
    E|-----------------------------------------------------------------|
    B|-----------------------------------------------------------------|
    G|-----------------------------------------------------------------|
    D|-----6------2------2--------2------2------2------2------2------2-|…
  • intro w/distortion 
    
     guitar 1 plays the b-string, the guitar 2 plays the other part 
    
     00:00 to 00:20 
     e.------------------------------------------------------------------------- 
     b.-3-3-3-2-2-2-3-3-3-2-2-2-3-3-3-2-2-2-3-3-3-2-2-2-3-3-3-2-2-2-3-3-3-2-2-2-…
  • Main
    G|--------------------------------------------------------|
    D|------9------8-------------------9------8---------------|
    A|--7------10---------9------7-7------10--------9------7--|
    E|-----------------7-----10------------------7-----10-----|
    
    G|-----------|------------------------------------|--------------|
    D|-----------|---------------------8-8--8--9-9--9-|--------------|
    A|-10-10--7--|--7-7--7--10-10--10-----------------|--------------|
    E|-----------|------------------------------------|-1-1--4--7--8-|…
  • First it goes
    E|-3/123-------------------------------------------------|
    
    
    Main riff (there's some variations)
    G|---------------|--------------------|---------------------|
    D|---------------|--------------------|---------------------|
    A|---------------|--------------------|---------------------|
    E|-2-2--2-2--0-5-|-2-2---2-2--0-2-0-5-|-2-2-2-2-2-2-0-2-0-5-|
    
    I…
  • Chords:
    Name |E-A-D-G-B-E|
    
    G    |3-5-5-4-3-3|
    F    |1-3-3-2-1-1|
    C    |_-3-5-5-5-3|
    
    
    (Rythm 1)
    All 1/4 strums:
    |G-G-X-X|G-G-X-X-|F-F-X-X|F-F-X-X|(x2)
    
    
    (Rythm 2)
    All 1/4 strums again:
    |G-G-G-G|G-G-G-G|F-F-F-F|C-C-C-C|(x4)
    
    
    (RIff…
  • Intro                                               T
    G|-------7---------------------7--------------------------|
    D|-----6-------6-------------6-------6--------------------|
    A|---7-----6-7---7---8-----7-----6-7---7---6*-------15---|
    E|-0---------------0-----0---------------0----------------|
    B|--------------------------------------------------------|…
  • -|---------------------------------------------------------------|------------
    -|---------------------------------------------------------------|------------
    -|-------------7h9p7----7-----------------------7h9p7----7-------|------------
    -|--------x----7h9p7----7-----9------------x----7h9p7----7-------|------------
    -|----9-x-x--7--------9---9--10-------9--x-x--7--------9---9--9--|------------
    -|-7b-7----------------------------7b-7--------------------------|------------
    
    
    1.)Verse.…
  • intro/verse 
    
      e.------0----------------- 
      b.--3--------------------- 
      g.----------2vv---4---2p0---2 repeat over and over until chorus 
      d.------------------------ 
      a.------------------------ 
      E.------------------------…
  • Intro + Break Down
    G|--------------------------------------------------------|
    D|--------------------------------------------------------|
    A|--------------------------------------------------------|
    E|-1-0-0-0--1-0-0-0--1-0-0-0-0----------------------------|
    B|--------------------------------------------------------|
    There's…
  • Drop D Tuning
    
    
    Intro
    ~~~~~
    E-----0-------------------------
    B-------0------0----------------
    G---------3--3---3----3-----4-3-  These repeats 4 times
    D-----------------------4-2-----
    A-------------------------------
    D--2h4--------------------------
    
    
    Verse…
  • E--------------------------------------------------------------------------------------------------|
    B-----4-4-------6--6--6--4--6--8---88---88---98----6-6--6--6--4------------------------------------|
    G--------7--5--------------------------------------------------------------------------------------|
    D--------------------------------------------------------------------------------------------------|
    A--------------------------------------------------------------------------------------------------|
    E--------------------------------------------------------------------------------------------------|…
  • Intro + bridge
    G|--------------------------------------------------------|
    D|--------------------------------------------------------|
    A|---3-4---3-4---3-4-5*-----------------------------------|
    E|-2-----1-----2------------------------------------------|
    B|--------------------------------------------------------|…
Наверх