Аккорды «Jimmy Eat World»

Jimmy Eat World
Группа была основана в городе Меса, штат Аризона в 1993 году. Вокалист и гитарист Джим Эдкинс и барабанщик Зак Линд, друзья еще с детского сада, объединили свои усилия с гитаристом Томом Линтоном и басистом Митчем Портером. Таким образом сформировался коллектив, получивший название Jimmy Eat World (Джимми Ест Мир). Первые годы группа подражала панк-рок стилю своих кумиров, записав Demo-кассету, семёрку "One Two Three Four" и первый студийный альбом "Jimmy Eat World" в 1994 году… Читать полностью... Группа была основана в городе Меса, штат Аризона в 1993 году. Вокалист и гитарист Джим Эдкинс и барабанщик Зак Линд, друзья еще с детского сада, объединили свои усилия с гитаристом Томом Линтоном и басистом Митчем Портером. Таким образом сформировался коллектив, получивший название Jimmy Eat World (Джимми Ест Мир). Первые годы группа подражала панк-рок стилю своих кумиров, записав Demo-кассету, семёрку "One Two Three Four" и первый студийный альбом "Jimmy Eat World" в 1994 году на независимом лейбле Wooden Blue Records ( данный лейбл выпускал в основном группы, игравшие Punk / Indie / Emo). В конечном счете, вдохновленные успехом таких групп, как Fugazi и Sunny Day Real Estate, команда начала экспериментировать с эмо. Поскольку они начали записывать песни на маленьких независимых студиях и выступать на небольших сценах, они были очень удивлены встретить так много одинаково мыслящих групп, таких как Christie Front Drive, Sense Field, и Seven Storey Mountain, исполняющих похожую музыку. Группа продолжала выступать и вскоре они начали привлекать внимание небольших подпольных студий. В 1995 году Гари Герш, президент лейбла (и бывший промоутер Nirvana) подписал группу на лейбл Capitol Records. Примерно в это же время, басист Мич Портер расстался с группой и был заменен другом Линтона Риком Берчом. После небольшого прослушивания у продюсеров, к группе присоединился барабанщик группы Drive Like Jehu Марк Тромбино для записи их второго альбома Static Prevails, который вышел в 1996 году. В последующие годы группа позволила себе выпустить несколько синглов на независимых лейблах, включая Split 7'' с Christie Front Drive в 1995, сплит с Jejune и 3-Way Split с Sense Field и Mineral в 1997 году. В 1998 году выходит одноимённый мини-альбом группы "Jimmy Eat World (EP)". С этого момента Jimmy Eat World записывают свой третий студийный альбом - "Clarity" на нескольких студиях: Sound City и Clear Lake Audio, находившихся на севере Голливуда. Песни были сведены на студии One on One в Лос-Анджелесе, и до конца оцифрованы на Bernie Grundman Mastering. Альбом знаменует собой начало Джима Адкинса — в отличие от Тома Линтона, который до некоторого времени был главным вокалистом, — Теперь его голос можно услышать лишь в некоторых песнях альбома в качестве бэк-вокала, за исключением песни "Blister". Песня "Goodbye Sky Harbor" была написана под влиянием романа Джона Ирвинга - "Молитва об Оуэне Мини /A Prayer for Owen Meany/ (1989)". Итак, "Clarity" выходит 23 февраля 1999 года на лейбле Capitol Records. С этого момента группа начинает приобретать популярность за пределами DIY и независимой сцены. Название Jimmy Eat World не имеет отношения к лидеру группы Джиму Эдкинсу. Младшие братья Тома Линтона, Эд и Джимми, постоянно дрались в детстве. Джимми, который был сильнее и тяжелее, обычно побеждал. Эд в возрасте 8 лет в качестве мести брату нарисовал мелками картину Джимми, запихивающего в рот целый мир с заголовком "Джимми ест мир". Также название группы могло быть вдохновлено эпизодом из мультфильма Tiny Toon Adventures. В эпизоде "Dizzy Eat World" был пятисекундный отрывок, в котором цветными мелками грубо нарисована картина, на которой зияющая утроба Диззи поглотила всю Землю. Дискография: Orangewood Sessions (Demo) (1992) Demo Tape (1993) One Two Three Four 7'' (EP) (1994) Jimmy Eat World (1994) Jimmy Eat World / Christie Front Drive - Split 7'' (1995) Jimmy Eat World / Emery - Split 7'' (1995) Static Prevails Demos (1996) Static Prevails (1996) Jimmy Eat World / Less Than Jake - Split 7'' (1996) Jejune / Jimmy Eat World - Split (1997) Mineral, Jimmy Eat World, Sense Field - 3 Way Split (1997) Jimmy Eat World (EP) (1998) Clarity Demos (1998) Clarity (1999) Jimmy Eat World / Jebediah - Split (2000) Singles (Compilation) (2000) Bleed American (Demos) (2001) Bleed American (2001) Bleed American (EP) (2001) Last Christmas (EP) (2001) Скрыть...
Популярные аккорды Jimmy Eat World:
алфавиту | просмотрам | случайно
  • D5  A5  G5  D5
    |----------------|
    |----------------|
    |-7-----------7--|
    |-7---7---5---7--|
    |-5---7---5---5--|
    |-----5---3------|
    
    
    Verse 1:
        D5                     A5
    Hey, don't write yourself off yet…
  • GUITAR 1
    
    CHORDS DROPPED D- TUNING
       D/G Fsus2  Bb   C   D   E   F   G   D*
    E|--0----8----x----x---x---x---x---x---x----||
    B|--5----8----x----x---x---x---x---x---x----||
    G|--2---10----x----x---x---9---x---x---7----||
    D|--0---10----8---10---0---9---3---5---7----||
    A|--0---(8)---8---10---0---7---3---5---5----||
    D|--0---(8)---8---10---0---x---3---5---x----||
    
    
    GUITAR…
  • Played with Capo 2
    
    
    Intro:  D  Asus4 D/B   G9
    
    --------2----0----0-----0---------
    --------3----3----3-----3---------
    --------2----2----0-----0---------
    -------------2----0-----0--------
    ------------------2-----2-------
    ------------------x-----3-------
    
    There's…
  • whole song in drop D 
    
    
    intro/chorus -  
    G ------------------------------------------------------------------
    D ------------------------------------------------------------------
    A -------------------------------------------------------------2222-
    D…
  • Capo 1st fret
    
    Chords used:
    Cmaj7:   x32000      Am:   002210
    Fmaj7:   xx3210       F:   133211
    C:       x32020       G:   320033
    Em:      022000   Cadd9:   x32003
    
    
    Verse 1:
                          Cmaj7
    What's wrong baby?…
  • D9  A7 Bm4  A   G6
    
    E|--0---0---0---0---0--|    
    H|--3---2---3---2---3--|  
    G|--2---0---4---2---0--| 
    D|--0---2---4---2---0--| 
    A|--X---0---2---0---2--|
    E|--X---X---X---X---3--|
    
    
    D9              A7     Bm4
    This time it's…
  • Drop D Tuning (D A D G B e)
    
    
    Intro:
    
    Guitar 1 (light palm mute)
    e-----------------------------------------------------------------|
    B-----------------------------------------------------------------|
    G-----------------------------------------------------------------|
    D-----------------------------------------------------------------|
    A-----------------------------------------------------------------|
    D-5-5-5-5-5-5-5-5-8-8-8-8-8-8-8-8-3-3-3-3-3-3-3-3-1-1-1-1-1-1-1-1-|…
  • Guitar 1 (Repeats throughout whole song)
    E ------------------------------------------------------------------------------
    B ------------------------------------------------------------------------------
    G ------------------------------------------------------------------------------
    D…
  • Intro:
    Strum a clean A over and over...
    
    
    Verse One:
    (still on A)
                D
    When you're on, I swear you're on.
                           A
    You rip my heart right out.
    You rip my heart right out.
                      D
    I think…
  • Drop-D Tuning (D A D G B E) 
    
    
    Intro: 
    
    distorted guitar w/ heavy palm muting 
    |-----------------------------------------------------------------
    |-----------------------------------------------------------------
    |-----------------------------------------------------------------
    |-0-0-0-0-0-0-0-0-0-0-0-0-0-0-0-0-0-0-0-0-0-0-0-0-0-0-0-0-0-0-0-0-
    |-2-2-2-2-2-2-2-2-2-2-2-2-2-2-2-2-5-5-5-5-5-5-5-5-5-5-5-5-5-5-5-5-
    |-0-0-0-0-0-0-0-0-0-0-0-0-0-0-0-0-0-0-0-0-0-0-0-0-0-0-0-0-0-0-0-0-
    
    |-----------------------------------------------------------------…
  • tuning normal
    
    
    PART 1
    G:------------------]
    D:------------------]
    A:--55-00-22-22-00--]
    E:-0----------------]
    
    
    PART 2
    G:----------------------------]
    D:----------------------------]
    A:-----------00-22------------]
    E:-5555-7777-------5555-7777--]
    
    
    PART…
  • Intro: 
    
    Guitar 1 
    e------------------------------------------------------------| 
    B---0-0-----0-0-----0---0-0-----0-0-----0-----0-0-----0-0---0| 
    G---4-6-----4-6-----4---4-6-----4-6-----4-----4-6-----4-6---4| 
    D-4-----4-4-----4-4---0-----0-0-----0-0---4-4-----4-4-----4--|…
  • Tuning: D A D G
    
    
    verse
    G|----|--|----------------------|--|
    D|----|2x|----------------------|2x|
    A|-0--|--|-0-0-2-4-0-0-2-2h4h2--|--|
    D|---4|--|---------------------4|--|
    
    
    chorus
    G|---------------------------------|--|----------------------------------------
    D|---------------------------------|2x|----------------------------------------
    A|---------------------------------|--|----------------------------------------
    D|-00-000-022-222-244-444-444-444-4|--|00-000-022-222-2-4-2-00-000-000-000-022-
    
    G|------|
    D|------|
    A|-----0|
    D|-222--|
    
    
    bridge…
  • intro: 
    
    e|---5---5/7---7---7---5-------5----5----| 
    B|---5---5/7---7---7---5-------5----5----| 
    G|---7---5/7---7---9---7-------5----5----| 
    D|---7---7/9---9---9---7-------7----7----| 
    A|---5---7/9---9---7---5-------7----7----|…
  • Standard Tuning
    
    intro:
    
    e-----------------|
    B-----------------|
    G----2------------|
    D----2------------|  over and over
    A-----------------|
    E-----------------|
    
    when the words come in we start playing these three chords…
  • INTRO
    
     E|---------------------------------------------------------------
     B|---------------------------------------------------------------
     G|---------------------------------------------------------------
     D|3-3-3-3-3-3-3-3-0-0-0-0-0-0-0-0-7-7-7-7-7-7-7-7-3-3-3-3-3-3-3-3…
  • RIFF A
    
    e---------------------------------------------------------------]
    B---------------------------------------------------------------]
    G-11-11-11/7-7-77777-4-4-444444-11-11-11/7-7-7-6-6-6-4-4-444444-]
    D- x- x- x/x-x-xxxxx-x-x-xxxxxx-…
  • Standard Tuning 
    
    
    Intro: 
    Guitar 1 (play once, then Guitar 2 accompanies) 
    |------------------------------------- 
    |----------5-5-4-44----------5-5-4-44- 
    |-6-6-66-6-6-6-4-44-6-6-66-6-6-6-4-44- 
    |-x-x-xx-x-x-x-x-xx-x-x-xx-x-x-x-x-xx-…
  • (D A D G B E) tuning
      
    
    Intro: 
    
    Guitar 1 
    ----------------------------------------------------------------------------- 
    --------11-9---------------11-9---------------11-9---------------11-9-------- 
    ----8-8-----------8----8-8-----------8----8-8-----------8----8-8-----------8-…
  • Intro:
     
    Guitar 1 
    E--------------------------------------------------------- 
    B--------------------------------------------------------- 
    G-888888888888888888888888-131313131313131313131313131313- 
    D-555555555555555555555555-xxxxxxxxxxxxxxxxxxxxxxxxxxxxxx-…
  • VERSE/INTRO     | 
    Guitar 1        [v start here on second verse]  
    e|--------------------------------------------------------|
    B|--------------------------------------------------------|
    G|-------------1111-1111-1111-1111-1111-1111-1111-1111-11-|
    D|-9-9-7-9-9-7-x-x--x-x--x-x--x-x--x-x--x-x--x-x--x-x--x--|
    A|-9-9-7-9-9-7-9-9--9-9--9-9--9-9--9-9--9-9--9-9--9-9--9--|
    D|-9-9-7-9-9-7-0-0--0-0--0-0--0-0--0-0--0-0--0-0--0-0--0--|
    
    e|-------------------------------------------------------|
    B|-------------------------------------------------------|
    G|-------------7-7--7-7--7-7--7-7--7-7--7-7--7-7--7-7--7-|
    D|-9-9-7-9-9-7-x-x--x-x--x-x--x-x--x-x--x-x--x-x--x-x--x-|…
  • Tuning: Drop D
    
    
    Intro x2 : verse x4
    
    E|--------------------------------------------------|
    B|--------------------------------------------------|
    G|-10-10-10-10hbr--9-9-9-9-10-10-10-10-10-10-10-10--|
    D|-x--x--x---xhbr--x-x-x-x-8--8--8--8--8--8--8--8---|
    A|-8--8--8---8hbr--8-8-8-8-8--8--8--8--8--8--8--8---|
    d|-------------------------8--8--8--8--8--8--8--8---|…
  • Tuning: Drop-D Tuning (D A D G B E)
            Capo 4th fret
    
    
    Intro and Verse:
    |-----------------------------------------------------------------|
    |-----2-------2-------2-------2-------2-------2-------2-------2---|
    |---2---2---2---2---2---2---2---2---2---2---2---2---2---2---2---2-|
    |---------------------------------4-------4-------4-------4-------|
    |-0-------0-------0-------0---------------------------------------|
    |-----------------------------------------------------------------|
    
    |-----0-------0-------0-------0-------0-------0-------0---|
    |---3---3---3---3---3---3---3---3---3---3---3---3---3---3-|
    |-2-------2-------2-------2-------2-------2-------2-------|
    |---------------------------------------------------------|
    |---------------------------------------------------------|
    |---------------------------------------------------------|
    
    
    Chorus:
    
    Guitar…
  • Verse 1
    
    G-|-----------------------------------------------------------------
    D-|-----------------------------------------------------------------
    A-|-----------------5-5-5-5-5-5-5-5-9-9-9-9-9-9-9-9-7-7-7-7-5-5-5-5-
    E-|-7-7-7-7-7-7-7-7-------------------------------------------------
    
    G-|---------------------------------|
    D-|---------------------------------|
    A-|-----------------5-5-5-5-5-5-5-5-|
    E-|-7-7-7-7-7-7-7-7-----------------|
    
    
    Chorus…
  • e|-----------0-----------2-0--2-0--------------0------------------------|  Play this
    B|--------3---------------------------------3---------3-----------------|  twice
    G|-----2-------------2-------------------2------------3-----------------|
    D|--0-------------0-------------------0---------------3-----------------|
    A|----------------------------------------------------------------------|
    E|----------------------------------------------------------------------|…
  • Standard Tuning
    
    
    Guitar 1              Play 2x
    e|--x------------------------------------------------------------------------|
    B|--x----------------------------------------------------------1-1-1-1-1-1---|
    G|--x-(x7)-6-6-6-6-6-6-6-6-4-4-4-4-4-4-4-4-------------2-2-2-2-2-2-2-2-2-2---|…
  • INTRO
    
    E|----|-----3-------3b----3-------3b----3-------3b----------
    B|----|-----3-------3b----3-------3b----3-------3b----------
    G|----|-----0-------0-----0-------0-----0-------0-----------
    D|0-0-|-2-2---2-0-2---2-2---2-0-2---2-2---2-0-2---5--5--0--0
    A|0-0-|-2-2---2-0-2---2-2---2-0-2---2-2---2-0-2---5--5--0--0
    D|0-0-|-2-2---2-0-2---2-2---2-0-2---2-2---2-0-2---5--5--0--0
    
    E|----3-------3b----3-------3b----3-------3b---------
    B|----3-------3b----3-------3b----3-------3b---------
    G|----0-------0-----0-------0-----0-------0----------
    D|2-2---2-0-2---2-2---2-0-2---2-2---2-0-2---2-2--0--0
    A|2-2---2-0-2---2-2---2-0-2---2-2---2-0-2---2-2--0--0
    D|2-2---2-0-2---2-2---2-0-2---2-2---2-0-2---2-2--0--0
    
    
    VERSE…
  • Standard Tuning 
    
    
    Intro/Verse: 
    
    Guitar 1 
    |----------------------------------------------------------------- 
    |----------------------------------------------------------------- 
    |-6-6-6-6-6-6-6-6-----------------6-6-6-6-6-6-6-6-----------------…
  • Standard tuning 
    
    
    Intro: 
    ----------------------------------- 
    ---9---9---9---9---10---10---7---7- 
    -9---9---9---9---9----9----9---9--- 
    ----------------------------------- 
    ----------------------------------- 
    -----------------------------------…
Наверх