Аккорды «Jimmy Page»

Jimmy Page
Пейдж начал выступать еще в начале 60-х годов, играл в нескольких группах и заслужил репутацию уважаемого сессионного музыканта (он участвовал в записях групп Lulu, Them, Tom Jones, Dave Berry, The Kinks, The Who и ряда других). В 1965 году он записал сольный сингл «She Just Satisfies», продюсировал записи Нико и Джона Майолла, а в 1966 году вошел в состав The Yardbirds. Спустя два года, после распада группы, он создал Led Zeppelin. Говорить о том, какую славу принесла ему эта группа, не приходится.… Читать полностью... Пейдж начал выступать еще в начале 60-х годов, играл в нескольких группах и заслужил репутацию уважаемого сессионного музыканта (он участвовал в записях групп Lulu, Them, Tom Jones, Dave Berry, The Kinks, The Who и ряда других). В 1965 году он записал сольный сингл «She Just Satisfies», продюсировал записи Нико и Джона Майолла, а в 1966 году вошел в состав The Yardbirds. Спустя два года, после распада группы, он создал Led Zeppelin. Говорить о том, какую славу принесла ему эта группа, не приходится. Его манера игры породила кучу подражателей и настоящих последователей, а записи его признаны классикой рока. После распада Led Zeppelin удача, казалось, покинула Пейджа. Сотрудничество с Полом Роджерсом (Paul Rodgers) в группе Free не принесло ему успеха, однако в 1988 году он выпустил пластинку «Outrider» (в записи ее принимали участие Роберт Плант, Крис Фарлоу и Джейсон Бонхэм, сын покойного барабанщика Led Zeppelin Джона Бонхэма). После этого Пейдж успешно работал над перезаписями своих старых вещей, продуктивным оказалось и его сотрудничество с Ковердейлом - результатом его была пластинка «Coverdale/Page». А в 1994 году Пейдж и Роберт Плант совершили совместное концертное турне со своими новыми версиями песен Led Zeppelin - с этих гастролей музыканты привезли концертный альбом и намерение издать ремастированные CD всех альбомов Led Zeppelin. Скрыть...
Популярные аккорды Jimmy Page:
алфавиту | просмотрам | случайно
  • E|------------|------------|------------|------------|
    B|------------|------------|------------|------1-----|
    G|------------|------0-----|------0---3-|----0---0---|
    D|------------|----1---1---|----1---1-3-|--2-------2-|
    A|------------|--3-------3-|--3-------5-|3-----------|
    E|------------|4-----------|4-----------|------------|
    
    E|------------|------------|------------|------------|
    B|------------|--------1---|--------1---|------------|
    G|--454-------|------0-----|------0---0-|------0-----|
    D|-0---5--020-|----2-------|----2-------|--------0---|
    A|2-----2----2|--3---------|--3---------|----2-----2-|
    E|------------|------------|------------|------------|
    
    E|------------|------------|------------|------------|
    B|------------|------------|------------|------------|
    G|------0-----|------------|------------|------0-----|
    D|----0---0---|------3-----|------3-----|----1---1---|
    A|--2---------|--0-3-------|--0-3---3---|--3-------3-|
    E|3---------3-|1-----------|1---------1-|4-----------|
    
    E|------------|------------|------------|------------|
    B|------------|------1-----|------1-----|------------|
    G|------1-----|----0---0---|----0---0---|------0-----|
    D|----1-------|--2-------2-|--2-------2-|----0---0---|
    A|--3-----3-3-|3-----------|3-----------|--2-------2-|
    E|3-------3-3-|------------|------------|3-----------|
    
    E|------------|------------|------------|------------|
    B|------------|------------|------------|------------|
    G|------0-----|------------|------------|------0-----|
    D|----0---0---|------3-----|------3-----|----1---1---|
    A|--2-------2-|--0-3---3-0-|0-0-3---0-2-|--3-------3-|
    E|3-----------|1-----------|1-----------|4-----------|
    
    E|------------|------------|------------|------------|
    B|------------|------------|------------|------------|
    G|------------|0-----0-----|0-----0-----|------------|
    D|----1-0-----|2-----2-----|2-----2-----|------------|
    A|3-3-------1-|3-----3-----|3-----3-----|--0-3-------|
    E|4-----------|------------|------------|1-----------|…
  • Tuning:    Standard(EADGBE)
    
    E|-------------------------------------------------
    B|-------------------------------------------------
    G|222--222-0-333-333-0-444-444-0-555-555-777-------
    D|000--000-0-000-000-0-000-000-0-000-000-000-------
    A|-------------------------------------------------
    E|-------------------------------------------------…
  • b  = full bend
    br = bend and release
    v  = vibrato
    /  = slide up
    p  = pull-off
    h  = hammer-on
    
    |----5---------------------|----8-8-8b--8p5------8-10p8--------------|
    |------8-5-----------------|-8b-------------8/10--------10-8----8h10-|
    |-7b-------7-5---7-5-------|---------------------------------10------|
    |--------------7-----7-5---|-----------------------------------------|
    |------------------------8-|-----------------------------------------|
    |--------------------------|-----------------------------------------|
    
    
    
    |------5-----------------------------------|
    |----5---8p5-------------------------------|
    |-7b---------7-5---7-5-----------5---5-5p0-|
    |----------------7-----7-5---5-7---7-------|
    |--------------------------7---------------|
    |------------------------------------------|
    
    
    
    |-5--------------------------|
    |---8-5----------------------|
    |-------7-5---7-5------------|
    |-----------7-----7-5-7-5----|
    |-------------------------8v-|
    |----------------------------|
    
    
    
    |--------------------|-------------------|
    |--------------------|----------------13-|
    |--------------------|-------12-12h14----|
    |-----10h12p10----10-|-12/14-------------|
    |-/12----------12----|-------------------|
    |--------------------|-------------------|
    
    
    
    |--------------------|-15b-15p13-|
    |-15b-15p13-15p13----|-----------|
    |-----------------14-|-----------|
    |--------------------|-----------|
    |--------------------|-----------|
    |--------------------|-----------|
    
    
    Repeat…
  • {Intro}
    [E] [E] [A] [E] [E] [F#m B] [E] [E]
    
    {Verse 1}
    If I [E]cannot be so happy with [A]out you my [E]dear,
    If I cannot hold you close evr'y [F#7]second that you're [B]here,
    You must [A]know I can't go on.
    [E] Ev'ry [A]time…
  • b  :bend
     r  :release b
     X  :rest
     / :slide
     !9!:Harmonic
    
    ----------------------------------------------------------------------------
    
    e:----------------------------------------------------------1512----1512---|
    B:---12--12-1512--------12-1512----------12-12-1512-X-12-------12-------12|
    G:14b16------------14b16----------14-14b16-----------------------------------|
    D:---------------------------------------------------------------------------|
    A:---------------------------------------------------------------------------|
    E:---------------------------------------------------------------------------|
    
    
    e:1512---1512--1512------12-15b17-15-12----12-----------------------------|
    B:------12-----12-----12-12-12-------------15-15-1512-----------------------|
    G:-----------------------------------------------------1412----12-14-12-14--|
    D:-----------------------------------------------------------14--------------|
    A:---------------------------------------------------------------------------|
    E:---------------------------------------------------------------------------|
    
    
    e:---------------------------------------------------------------------------|
    B:--------15-----------------------------------------------------------------|
    G:12-14b16----161412-1412---------------------------------!9!b!11!--9b11--|
    D:--------------------------14-12-14-12/1412----12/1412--0-----------------|
    A:--------------------------------------------14-----------------------------|
    E:---------------------------------------------------------------------------|
    
    
    e:---------------------------------------------------------------------------|
    B:---------------------------------------------------------------------------|
    G:---7-9-7-7-76-65-6-76-4-643-4-2-2-4-2---0-0-0b2--0-0b2-0-0b2-0-0b2|
    D:---------------------------------------------------------------------------|
    A:---------------------------------------------------------------------------|
    E:---------------------------------------------------------------------------|
    
    
    e:---------------------------------------------------------1512-15-15b12----|
    B:------------------------------------------------------12-------12-12----12-|
    G:--0-0-0b4-0-0b2--0-0b4b4-0-0b2-0-0b4-0-0b3-0-0-b4r0------------------------|
    D:---------------------------------------------------------------------------|
    A:---------------------------------------------------------------------------|
    E:---------------------------------------------------------------------------|
    
    
    e:1512----1512----15--1512-----15--15b17-15-17---15b17-15b17-15-12-----12-|
    B:------12-------12------------12-------------------------------------15-----|
    G:---------------------------------------------------------------------------|
    D:---------------------------------------------------------------------------|
    A:---------------------------------------------------------------------------|
    E:---------------------------------------------------------------------------|
    
    
    e:---------------------------------------------------------------------------|
    B:1512--------------------------15------------------------------------------|
    G:-------1412----12-14-12-14/16----161412-1412---------------------------|
    D:-------------14----------------------------------14-12/1412----12-12------|
    A:-------------------------------------------------------------14----12/1412|
    E:---------------------------------------------------------------------------|
    
    
    e:--------------------------------------------------------------------19b21--|
    B:----------------------------17b20---17b19-17b20--17b19-15-15--17-17--------|
    G:---------------------------------------------------------------------------|
    D:---------------------------------------------------------------------------|
    A:/1412---------10--12-10---------------------------------------------------|
    E:------------12-------------------------------------------------------------|
    
    
    e:1918--17------------------------------------------------------------------|
    B:----------20-2017----17-20--17/2017-----17-20-17/2017-----17-20-17/2017|
    G:-------------------19------------------19-----------------19---------------|
    D:---------------------------------------------------------------------------|
    A:---------------------------------------------------------------------------|
    E:---------------------------------------------------------------------------|
    
    
    e:---------------------------------------------------------------------------|
    B:----17-20-17/2017----17-20-20b22--19b21-21b22-19b20-19b20b22--------20b22b|
    G:-19----------------19------------------------------------------------------|
    D:----------------------------------------------------------------0-0--------|
    A:---------------------------------------------------------------------------|
    E:---------------------------------------------------------------------------|
    
    
    e:-------------------------------------19b22r19----------19b22r19------------|
    B:24r2017--17-17--20b24r20-17-17-17-17----------17-17-17----------17-17-17--|
    G:---------------------------------------------------------------------------|
    D:---------------------------------------------------------------------------|
    A:---------------------------------------------------------------------------|
    E:---------------------------------------------------------------------------|
    
    
    e:---------------------------------------------------------------------------|
    B:---17-20b23r20--17-17----17b20r17-15-15--15b17r15--------------------------|
    G:----------------------0--17-----------------------12-12----12b14r12-9-9--9-|
    D:---------------------------------------------------------------------------|
    A:---------------------------------------------------------------------------|
    E:---------------------------------------------------------------------------|
    
    
    e:---------------------------------------------------------------------------|
    B:-----------------------------------------------------42-------------!4!-|
    G:9b11-9b11r9--7--4b6r4--4--42-2--42-2--42-2--42-2--2--4--2---4--|
    D:-------------0-------------------------------------------------------------|
    A:---------------------------------------------------------------------------|
    E:---------------------------------------------------------------------------|
    
    
    e:---------------------------------------|
    B:----2/42----------------------------|
    G:----2/42--0--2/2/2--------------|
    D:--------------------------42--------|
    A:--------------------------------42--|
    E:---------------------------------------|…
Наверх