Аккорды «Jj72»

Jj72
JJ72 образовались в Дублине в 1997 году в составе вокалиста Марка Грини, барабанщика Фергала Мэттьюза и басистки Хилари Вудс. Группа выпустила несколько синглов, но настоящая популярность пришла к команде с выходом в 2000-м году дебютного альбома "JJ72", вызвавшего благоприятные отзывы прессы и разошедшегося тиражом в 500 тысяч экземпляров в одной лишь Великобритании. После выпуска второго альбома "I To Sky" группу покинула Хилари Вудс и на ее место была принята Сара Фокс. С ней музыканты подготовили… Читать полностью... JJ72 образовались в Дублине в 1997 году в составе вокалиста Марка Грини, барабанщика Фергала Мэттьюза и басистки Хилари Вудс. Группа выпустила несколько синглов, но настоящая популярность пришла к команде с выходом в 2000-м году дебютного альбома "JJ72", вызвавшего благоприятные отзывы прессы и разошедшегося тиражом в 500 тысяч экземпляров в одной лишь Великобритании. После выпуска второго альбома "I To Sky" группу покинула Хилари Вудс и на ее место была принята Сара Фокс. С ней музыканты подготовили материал для своего третьего альбома, который так и не успели выпустить. Марк Грини, Фергал Мэттьюз и Сара Фокс решили идти по жизни разными путями, приводя в качестве причин развала группы "объективные обстоятельства" - в частности, проблемы со своим лейблом.На прощание музыканты разместили на сайте группы трогательное посвящение своим фэнам. "Марк, Фергал и Сара хотят выразить глубочайшую благодарность всем людям с безупречным вкусом, которые все эти годы поддерживали JJ72, - значится в обращении - Спасибо и тем, кто никогда не любил и даже презирал нас - потому что даже самая прекрасная фотография не может существовать без негатива. Спасибо всем, кто был с нами. Вы знаете, кто вы есть". Известно, что в настоящее время вокалист JJ72 Марк Грини работает в студии над своим новым проектом. Скрыть...
Популярные аккорды Jj72:
алфавиту | просмотрам | случайно
  • Strings: E ,A ,D ,G 
    Symbols explanations:
      H: hammer on  P: pull off
      +: slap       .: pop
      : slide up   /: slide down
      --x~~x~~x: triplets
    ====================
    
    Verse/Chorus
    |…
  • Intro and Verse:
    G-----------------
    D-----------------  Repeat throughout verse
    A-3----10/8---10/3  
    E-----------------
    
    Chorus:
    G-----------------
    D-----------------
    A-8-8-7-8--5-5-5-5
    E-----------------
    Repeat until:
    G-----------------------------
    D----------------------3-5-3--
    A-8-8-8--7-8--5-5--3-5-------5
    E-----------------------------
    then:
    G-----------
    D-----------
    A-8-8-7-8--5
    E-----------
    
    Solo:
    G---------------------------
    D---------------------------
    A-3--3--3-5-7/--------------
    E---------------1--1--1-2-3/
    repeat…
  • This riff all the way through the song
    
    EI------7-----------7------------------7-------------7-------------8-------------8------------------
    BI--8----8----7-----7--8--8--8-------8---7--------7---10---------10---8-------8--10--10--10-
    
    
    G…
  • Tuning:Normal
    
    
    INTRO / VERSES
    
    E |----------------------------|
    LB|----------------------------|
    A |-3/5-5--2/4-4--1/2-2--------|Make a lot of repetitons.
    E |----------------------3-2-0-|(listen to the song for timing)
    
    CHORUS
    
    E…
  • There are two acoustic guitars used on the always and forever single. I have left 
    guitar 2 bits until the end, and left reference notes through the song.
    
    Bm (224432)
    A  (577655)
    E  (022100)
    
    Guitar 1 intro: (Bm, A, E)*3
    
    Verse…
  • VERSE 1 
    
    e||-------------------------------------------------------------------|
    B||-------------------------------------------------------------------|
    G||-5--5--5---5--5--5--5---5--5--5---5--5--5--5-----------------------|
    D||-5--5--5---5--5--5--5---5--5--5---5--5--5--5-----------------------|
    A||-3--3--3---3--3--3--3---2--2--2---3--3--3--3-----------------------|
    E||-------------------------------------------------------------------|
    
    
    e||-------------------------------------------------------------------------|
    B||-------------------------------------------------------------------------|
    G||-12-12-12--7--11-11-11-11-11-11-11---14-14-14--16--14--12-12-12--7-7-7-7-|
    D||-12-12-12--7--11-11-11-11-11-11-11---14-14-14--16--14--12-12-12--7-7-7-7-|
    A||-10-10-10--5---9--9--9--9--9--9--9---12-12-12--14--12--10-10-10--5-5-5-5-|
    E||-------------------------------------------------------------------------|
    
    
    e||---------------------------------------------------------------------------|
    B||---------------------------------------------------------------------------|
    G||-12-12-12-12-12----------------------------11-11-11-11-11------------------|
    D||-12-12-12-12-12--10-10-10-10-10-10-10-10---11-11-11-11-11--9-9-9-9-9-9-9-9-|
    A||-10-10-10-10-10--10-10-10-10-10-10-10-10----9--9--9--9--9--9-9-9-9-9-9-9-9-|
    E||------------------8--8--8--8--8--8--8--8-------------------7-7-7-7-7-7-7-7-|
    
    
    e||------------------------------------------------------------------------|
    B||------------------------------------------------------------------------|
    G||-16-16-16-16-16--17-17-17-17-17-17----11-11-11-11-11--12-12-12-12-12-12-|
    D||-16-16-16-16-16--17-17-17-17-17-17----11-11-11-11-11--12-12-12-12-12-12-|
    A||-14-14-14-14-14--15-15-15-15-15-15-----9--9--9--9--9--10-10-10-10-10-10-|
    E||------------------------------------------------------------------------|
    
    
    
    e||-----------------------------------------------------------------------------------|
    B||-----------------------------------------------------------------------------------|
    G||-14--12--11--12--12---16--18--14--16--16---14--12--11--12--12---16--18--14--16--16-|
    D||-14--12--11--12--12---16--18--14--16--16---14--12--11--12--12---16--18--14--16--16-|
    A||-12--10---9--10--10---14--16--12--14--14---12--10---9--10--10---14--16--12--14--14-|
    E||-----------------------------------------------------------------------------------|
    
    
    e||-----------------------------------------------------------------------|
    B||-----------------------------------------------------------------------|
    G||-16--18--14--16--16---11-11-11-11-11-11-11-11--12-12-12-12-12-12-12-12-|
    D||-16--18--14--16--16---11-11-11-11-11-11-11-11--12-12-12-12-12-12-12-12-|
    A||-14--16--12--14--14----9--9--9--9--9--9--9--9--10-10-10-10-10-10-10-10-|
    E||-----------------------------------------------------------------------|
    
    e||-----------------------------------------------------------------------|
    B||-----------------------------------------------------------------------|
    G||-14-14-14-14-14-14-14-14--16-16-16-16-16-16-16-16----------------------|
    D||-14-14-14-14-14-14-14-14--16-16-16-16-16-16-16-16----------------------|
    A||-12-12-12-12-12-12-12-12--14-14-14-14-14-14-14-14----------------------|
    E||-----------------------------------------------------------------------|…
  • Intro
    e--x--x--x--x--x--x--x--x--x----x--x--x--x--x--x--x--x--x------------|
    B-13-13-13-13-13-13-13-13-13---13-13-13-13-13-13-13-13-13------------|
    G-14-14-14-14-14-14-14-14-14---12-12-12-12-12-12-12-12-12------------|
    D--------------------------------------------------------------------|
    A--------------------------------------------------------------------|
    E--------------------------------------------------------------------|
    
    
    INTERLUDE…
  • INTRO 
    e-15-15-15-15-15-15-15-15-14-14-14-14-14-14-14-14-12-12---------------------------------------------------------|
    B-12-12-12-12-12-12-12-12-12-12-12-12-12-12-12-12-12-12---12-12-12-12-12-13-13-13-13-13-12-12-12-12-12-12-12-12-|
    G---------------------------------------------------------12-12-12-12-12-12-12-12-12-12-12-12-12-12-12-12-12-12-|
    D---------------------------------------------------------------------------------------------------------------|
    A---------------------------------------------------------------------------------------------------------------|
    E---------------------------------------------------------------------------------------------------------------|
    Play…
  • A                  C#m
    Escaping contamination
    A                  C#m
    Is a difficult operation
    A                  C#m
    I need some hibernation
    
    Bm                 E
    Hide me from the evil
    Bm                         E  
    protect…
  • Intro and first verse:
    e---------------------------------------
    B-1---1---0---0----1---1----0-----0-----
    G---0---0---0---0----0---0-----0----0---
    D---------------------------------------
    A---------------------------------------
    E---------------------------------------
    
    e---------------------------------------
    B-1---1---0---0----1---1----1-----1-----
    G---2---2---0---0----2---2-----2----2---
    D---------------------------------------
    A---------------------------------------
    E---------------------------------------
    
    e---------------------------------------
    B-1---1---0---0----1---1----0-----0-----
    G---0---0---0---0----0---0-----0----0---
    D---------------------------------------
    A---------------------------------------
    E---------------------------------------
    
    e-------------------------------------0-
    B-1---1---0---0----1---1----1-----1---1-
    G---2---2---0---0----2---2-----2------2-
    D---------------------------------------
    A---------------------------------------
    E---------------------------------------
    
    For…
  • Intro
     
     Guitar 1
     e|-9-----9-----9-----9-----9----9-9-9--(Repeat)---------------------------|
     B|---10---10----10----10----10--------------------------------------------|
     G|--------------------------------------------------77777-------77777-----|…
  • Beautiful tune, goes something like this:
    __________________________________________________
    INTRO
    e--------------------------------------------------
    B--------------------------------------------------
    G-4---4---4----4----4---4---4----5----4----4-------
    D---5---5---5-----5---5---5---5-----5----4----4----
    A--------------------------------------------------
    E--------------------------------------------------
    
    e--------------------------------------------------
    B--------------------------------------------------
    G-4---4---4----4----4---5---4----4----4----4----4--
    D---4---4---4-----4---4---4---2----2----2----2----2
    A--------------------------------------------------
    E--------------------------------------------------
    
    e--------------------------------------------------
    B--------------------------------------------------
    G-4---4----4---4----4---4---4---4----4---4---------
    D---2---2----4----4---4---4---4---4----4---4-------…
  • The song starts with the lead singer Mark strumming the chords C and Am:
    
    Crun down to  Am 
    
    Dreams,       Dying mother
    C                  Am
    I am one my insides shudder
    Dm                 G   
    Grey coats of the infantry
    Dm…
Наверх