Аккорды «Kane»

Kane
Голландия, до сих пор славившаяся в основном своими достижениями в области клубной культуры и электроники, теперь может гордиться тем, что на ее просторах родилась настоящая рок-группа, способная в недалеком будущем застолбить не самое последнее место в рок-н-ролльной истории. Kane организовали в 1998 году два школьных друга - Динанд Вестхофф (Dinand Woesthoff) - вокал, гитара и Деннис Ван Левен (Dennis van Leeuwen) гитара, с выпуском дебютного альбома "As Long As You Want This" они в скором времени… Читать полностью... Голландия, до сих пор славившаяся в основном своими достижениями в области клубной культуры и электроники, теперь может гордиться тем, что на ее просторах родилась настоящая рок-группа, способная в недалеком будущем застолбить не самое последнее место в рок-н-ролльной истории. Kane организовали в 1998 году два школьных друга - Динанд Вестхофф (Dinand Woesthoff) - вокал, гитара и Деннис Ван Левен (Dennis van Leeuwen) гитара, с выпуском дебютного альбома "As Long As You Want This" они в скором времени стали настоящими суперзвездами у себя на родине. Помимо вышеназванных личностей, в Kane также числятся: гитарист Paul Jan Bakker, басист Aram Kersbergen, барабанщик Martijn Bosman, Ronald Kool и Reyn на клавишных. "So Glad You Made It" - второй полноценный релиз Kane, записанный в лучших традициях новой волны рок-музыки конца 80-х, напрямую пересекающийся с творчеством гигантов из U2 и INXS, достойными продолжателями дела которых музыканты из Нидерландов и являются. Ну, конечно, стоит упомянуть "отцов" из Rolling Stones - куда ж без них. Красивые, местами даже пафосные, насыщенные отличной гитарной техникой мейнстримовые мелодии (львиная доля пластинки отдана под медленные композиции), серьезный вокал Вестхоффа (без мнимого позерства и жеманства) плюс вдумчивая лирика делают Kane одной из интересных групп в современном музыкальном сообществе. Скрыть...
Популярные аккорды Kane:
алфавиту | просмотрам | случайно
  • Ik call the cord’s for this moment E, A, B, C# en C#min
    
    Send me the correct chord names please!
    
       E      B     A     C#  C#min   
    E|--0--|--2--|--0--|--4--|--4--| 
    B|--0--|--2--|--0--|--4--|--5--| 
    G|--1--|--4--|--2--|--6--|--6--|
    D|--2--|--4--|--2--|--6--|--6--|…
  • -1-------------*--1-1-0--0--1------------*----------|
    -3--1--3--5--3-*--3-3-3--------1--3—-5—3-*----------|
    -2-------------*--2-2-2------------------*----------|
    -0-------------*--0-0-0------------------*----------|
    -x-------------*--x-x-x------------------*----------|
    -x-------------*--x-x-x------------------*----------|
    
    
    Dm…
  • Tuning: ( low to high: E A D C )
    
    The song was originally done by U2 but this is a verry good cover song.
    
    Riff A ( intro plus main riff )
    
    C||:---------------------------------------------------------------------|
    D||:---------------------------------------------------------------------|
    A||:---5-5-5-5-5-5-----0-0-0-0-0-0-----2-2-2-2-2-2-2---------------------|
    E||:-----------------------------------------------------3-3-3-3-3-3-3---|…
  • Riff1
    e-0----0------0----0-0-0-0-|
    B-3----6------1----1-1-1-1-|
    G-2----5------2----2-2-2-2-|
    D-2----5------2----2-2-2-2-|
    A-0----0------0----0-0-0-0-|
    E--------------------------|
     Asus4 Csus4/A Am
    
    Riff2
    e-0----0------0----0-0-0-0-|
    B-3----8------1----1-1-1-1-|
    G-2----7----0-2----2-2-2-2-|
    D-2----7----0-3----3-3-3-3-|
    A-0----0------3----3-3-3-3-|
    E--------------------------|…
  • C#sus2                Aadd9
    e------------------------0-----0------0--|
    B------------------------0-----0------0--|
    G--6---6---6--4h6p4------6-----6------6--|
    D--6---6---6--------6p4--7-----7------7--|
    A--4---4---4-------------7-----7------7--|
    E--4---4---4-------------5-----5------5--|
    
    
    [Verse]
    C#sus2…
  • [Intro]
    Esus2   B/G   B5   C5  (4x)
    
    
    riff1a
    e--------------------------------|
    B--------------------------------|
    G---------------------0-------0--|
    D-----4-------4-----4-------5----|
    A---2-------2-----2-------3------|
    E-0-------3----------------------|…
  • Intro: gradually fade in           1st ending   2nd ending
    G|----------|----------|----------|----------|  ----------|
    D|*---------|----------|----------|---------*|  ----------|
    A|*44444444-|-66666666-|-88888888-|-88888888*|…
  • Riff1a
    e----------------------|
    B----------------------|
    G----------------------|
    D-2-0---0--------------|
    A-----4---4-0-----0-0--|
    E-------------0-3------|
    
    Riff1b
    e-----------------------------|
    B-----------------------------|
    G-----------------------------|
    D-----------------------------|
    A-----0-1-0---------5-4-5-4---|
    E-0-3-------3-0-3-5---------5-|
    
    Riff1c
    e-----------------------------------|
    B-----------------------------------|
    G-----------------------------------|
    D-----------------------------------|
    A-0-3-5-5-4-5-4-5-4--10--9---7---5--|
    E--------------------8---7---5---3--|
    
    
    Riff2a
    e-------x-x------------------------|
    B-------x-x------------------------|
    G-------x-x------4--5--------5-/7--|
    D-5--7--x-x-5--7-4--5--5--7--5-/7--|
    A-5--7--x-x-5--7-2--3--5--7--3-/5--|
    E-3--5--x-x-3--5-------3--5--------|
    
    Riff2b
    e-------x-x------------------------|
    B-------x-x------------------------|
    G-------x-x------4--5--------------|
    D-5--7--x-x-5--7-4--5--5--7--3-----|
    A-5--7--x-x-5--7-2--3--5--7--3-----|
    E-3--5--x-x-3--5-------3--5--1-----|
    
    
    Riff3…
  • Chords:
    
    C 335553
    G 355433
    Am 577555
    F 133211 
    
    
    Note:
    
    Eb Ab Db Bb Eb, half step down
    
    
    [riff 1]
    
    eb --------------------------------------------------------------------------|
    Bb --------------------------------------------------------------------------|
    Gb…
  • Intro riff
    e------|
    B------|
    G------|
    D-12/0-
    A-12/0-
    D-12/0-
    
    Riff1 (Drop-D)
    e--------------------------------------------------|
    B--------------------------------------------------|
    G--------------------------------------------------|
    D--------------------------------------------------|
    A---------5--3-0-3-0-3--2-0-2-0-2--2-0-2h3p2-------|
    D-0-0-3h5------------------------------------5-3-2-|
    
    
    Riff2…
Наверх