Аккорды «Kid Rock»

Kid Rock
Роберт Джеймс Ричи, выступающий под сценическим псевдонимом Kid Rock, родился 17 января 1971 года в городе Ромео, штат Мичиган. Свое первое демо он записал в 1988 году, будучи под влиянием работы группы Beastie Boys "Licensed To Ill". В конце 80-х Kid Rock подписал контракт с фирмой Jive Records, которая в 1990 году выпустила его дебютный альбом "Sandwiches for Breakfast". Песня "Yodelin' in the Valley" с этого диска была неоднократно прокручена в эфире радиостанции одного из нью-йоркских колледжей,… Читать полностью... Роберт Джеймс Ричи, выступающий под сценическим псевдонимом Kid Rock, родился 17 января 1971 года в городе Ромео, штат Мичиган. Свое первое демо он записал в 1988 году, будучи под влиянием работы группы Beastie Boys "Licensed To Ill". В конце 80-х Kid Rock подписал контракт с фирмой Jive Records, которая в 1990 году выпустила его дебютный альбом "Sandwiches for Breakfast". Песня "Yodelin' in the Valley" с этого диска была неоднократно прокручена в эфире радиостанции одного из нью-йоркских колледжей, в результате чего Kid Rock получил скандальную известность и штраф на 20 000 долларов за "откровенную пропаганду орального секса". А фирма Jive Records отказалась продолжать с ним сотрудничество. Переехав в Бруклин, Kid Rock нашел небольшой лейбл Continuum, на котором в 1993 году вышел его второй альбом "The Polyfuze Method". В 1994 году состоялся релиз EP "Fire It Up", после чего последовала двухгодичная пауза. Следующий полнометражный диск "Early Mornin' Stoned Pimp" Kid Rock записал в 1996 году. Решившись на создание постоянного сопровождающего состава, он пригласил в свою группу рэппера Джо Си, гитаристов Кенни Олсэн и Джейсон Краузе, клавишника Джимми Боунс, барабанщицу Стефани Ойлинберг, диджея Анкл Крекер и двух бэк-вокалисток: Мисти Лав и Ширли Хейден. Альбом "Devil Without a Cause" (1998) был выпущен Atlantic Records. Как результат, благодаря поддержке фирмы и MTV, диск достиг семикратного платинового успеха и вошел в пятерку лучших альбомов 1998 года. В следующем году Kid Rock стал одним из звезд, приглашенных для выступления на фестивале в Вудстоке. Он выкупил права на все свои предыдущие записи, которые наряду с несколькими новыми песнями вошли в альбом "The History of Rock" (2000). 16 ноября 2000 года после тяжелой болезни скончался один из музыкантов Kid Rock – Джо Си. Другой участник проекта – диджей Анкл Крекер – начал успешную сольную карьеру и покинул группу летом 2001 года. Несмотря на потерю двух коллег, Kid Rock продолжил работу над альбомом "Cocky", который был выпущен в 2002 году. Дискография: Grits Sandwiches for Breakfast - 1990 Polyfuze Method - 1993 Early Mornin' Stoned Pimp - 1996 Devil Without a Cause - 1998 The History of Rock - 2000 Cocky - 2002 Kid Rock - 2003 Live Trucker - 2006 Rock N Roll Jesus - 2007 Born Free - 2010 Скрыть...
Популярные аккорды Kid Rock:
алфавиту | просмотрам | случайно
  • h   - hammer-on
     p   - pull-off
     b   - bend
     r   - bend release (if no number after the r, then release immediately)
     s   - legato slide
     S   - shift slide
      - natural harmonic
    [n]  - artificial harmonic
    n(n) - tapped harmonic…
  • TUNING: standard (E,A,D,G,B,E)
    
    
         INTRO/VERSE:
       
            E     B     A     E
    
        E|--0--|-----|--0--|--0--|
        B|--0--|--4--|--2--|--0--|
        G|--1--|--4--|--2--|--1--|
        D|--2--|--4--|--2--|--2--|
        A|--2--|--2--|--0--|--2--|…
  • A
    Cause growin up I was never  
    
      G
    The logical one
    
      D
    Packed my shit 
    
      A
    Left home
    
    ----------------------------
    ----------------------------
    ----------------------------
    ----------------------------
    0-3-0---0-3-----------------
    ------3---------------------
    
    
    with…
  • Tuning: standard
    
    
    intro
    --------------------------| 
    --8-----------------------| 
    --6--3h5-0--3h5p0--3h5p0--| 
    --6--3h5-0--3h5p0--3h5p0--| 
    --6--3h5-0--3h5p0--3h5p0--| 
      ?     
           
    
    -----------------------------------------|------------------------
    -----------------------------------------|------------------------…
  • Key:  s=slide
    ^=bend
    h=hammer on
    p=pull off
    ~=virbrato
               
    
    e|--------2---0--------------------------------------2-----
    B|----------2---4(prebend)2-4-----------------------2-2----
    G|5^(slow)--------------------4s2-----2h3-------2h3--------
    D|--------------------------------0h4-----4-2h4------------
    A|---------------------------------------------------------
    E|---------------------------------------------(very…
  • verse - listen to the timing
    
    G|-------------------------|
    D|-------------------------|
    A|-------------------------| -> the 4h6s' play for a while then it moves onto the 8h10
    E|-4h6~~~~--8h10~~~~-------|
    
    chorus
    
    G|-------------------------|
    D|-------------------------|
    A|-3/53-X5X55-------------|…
  • Riff 1 (use wha-wah for this)   Riff2(distorted)          Riff3(distorted)
    e|-------x-x-x-x---------------| |-------x-x-x-x---------| |-----x-x-x-x---------|
    B|-------x-x-x-x-------3v-p-0--| |-------x-x-x-x---------| |-----x-x-x-x---------|
    G|-------x-x-x-x-4-p-2---------|…
  • Here are the different parts:
    
    Riff 1:
    
    G----------------------------------------------
    D----------------------------------------------
    A----------------------------------------------
    E--0-0-0-0-3--0-0-0-0-3--0-0-0-0-3--0-0-0-0-0--
    
    Riff…
  • G
    Fire it up
             Em
    Chop one out
    Am
    Somebody's got to know
             D
    That in two days in
           C               G
    I got two days left to go
    
    
                Em 
    Cuz I am Georgia
            G      C
    I am Memphis, Tennessee…
  • Dropped D
    
    INTRO 
    |------------------------------------------|
    |------------------------------------------|
    |------------------------------------------|
    |-5------5-5-5--6---6---5---5--------------|
    |-5------5-5-5--6---6---5-----9-8--6---6---|
    |----------------------------------6---6---|…
  • Intro: Background is acoustic finger-picking - C9 - G - D
    
    Electric solo begins on D:
    
    E||------------5-----------------------------------------------------|
    B||--------7-------7---5---s3h5h3---3---0---3s7---3---3---0---3s5---7|
    G||---7---7----------------------------------------------------------|
    D||---7---7----------------------------------------------------------|
    A||------------------------------------------------------------------|
    E||------------------------------------------------------------------|…
  • G
    15 years on this lonely road
    
    I paid my own way I carried my own load
    C
    I never asked too much from no one
    	        G 
    I was much too proud
    D		C                          G
    All i ever wanted Was to play music for A sold…
  • e|-|------------|-------------|----------------------|-|
    B|-|------------|-------------|----------------------|-|
    G|*|------------|-------------|----------------------|*|
    D|*|------------|-------------|----------------------|*|
    A|-|-2-2-2-5-2--|--2---2-5-2--|--2-2-2-5-5-5-5---5-2-|-|
    E|-|-0-0-0-3-0--|--0---0-3-0--|--0-0-0-3-3-3-3/5-3-0-|-|
    
    
    I'm…
  • D
    This here aint no love song
    And it aint for you
    G
    Its for the folks that relate to
    		D
    What ive been going through
    A
    Its for the 40 hour overtime
    G
    Workin man
    A
    And too the good women out there
      G              D
    I know…
  • part I:
    ----------------
    ----------------
    ------------53--
    3h5555 33355----
    
    Part II:
    -------------
    -------------
    -5555-33335--
    5------------
    
    part III:
    ----------
    -----131--
     5555---55
    5---------
    
    part IV:
    ----------
    --------3-
    -5555333-5
    5---------…
  • Riff 1      Guitar 1
    e|----------------------------------|
    b|----------------------------------|
    g|-2--2-7---5-2---------------------|
    d|-2--2-7---5-2---------------------|
    a|-0--0-5-0-3-0---------------------|
    E|----------------------------------|
    
    
    Riff…
  • A C D C riff, like La Grange
    Last measure of chorus is wrong, but sounds ok.
    
    Riff (verses)
    I like to play hank williams jr records
    Just as loud as they will rock
    Im into lynyrd skynyrd run dmc
    And that american pimp kid…
  • Tune down 1/2 step, EbAbDbGbBbeb
    
    Verse 1:
    
    [D] I was hiding from the sun once again, 
    [D] I was running from the time my friend, 
    I've [A] lost another war.  
    So, I [G] poured one more, 
    and went home drunk [D] again.
    
    [D]…
  • G-----------------------------------------------------
    D-----------------------------------------------------
    A----------------3h5--------------3h--5---------------
    E-0--000-0-0-0-0-----0--000-0-0-0---------------------
    
    Repeat…
  • Tuning: Standard
    
    This riff begins the song but it pops up in different places throughout the song.
    
    
    E|----------------------------------|
    B|----------------------------------|
    G|----------------------------------|
    D|--2-----5-----2-----5---5---7----|
    A|--2-x-x-5-x-x-2-x-x-5-x-5---7----|
    E|--0-x-x-3-x-x-0-x-x-3-x-3---5----|
    
    
    |x-…
  • ~MAIN RIFF~
    e|---------------------------|
    b|---------------------------|
    g|---------------------------|
    D|-0--0-0-5H7-0-5H7-0-5H7-0--|
    A|-0--0-0-5H7-0-5H7-0-5H7-0--|
    D|-0--0-0-5H7-0-5H7-0-5H7-0--|
    
        ~FILL~ (uses wah-wah…
  • standard tuning
    
    -----------------------------------------------------------------------------------|
    -----7-6-7-6-6-6-7-6---------------------------------------------------------------|
    ----------------------7-6-7-7-6-----------7---------9------------------------------|
    ----------------------------------7---9------11----------12------------------------|
    -----------------------------------------------------------------------------------|
    -----------------------------------------------------------------------------------|…
  • G
    I seen a fly slimmy on the avenue
    When i was on tour in baton rouge
    A mean little missy with a attitude
    I played it smooth
    No need to be rude
    C
    I stopped the ship
    Stepped off like chewie..
    G
    Ran some game like louie louie
    D
    Talked…
  • Drop D-Tuning
    
    Intro:Drum Machine
    
    Verses 1 & 3
    
    E---------------------------------------------------------|
    B---------------------------------------------------------|
    G---------------------------------------------------------|
    D---------------------------------------------------------|
    A-3h5---5-5---5---------------3h5---5-5---5---------------|
    D-0---0-0---x---x-0-0-0-0-x-0-0---0-0---x---x-0-0-0-0-x-0-|
    
    E------------------------------------------------------------------|
    B------------------------------------------------------------------|
    G------------------------------------------------------------------|
    D------------------------------------------------------------------|
    A-3h5---5-5---5---------------3h5-----5-5---5-6-5-3----------------|
    D-0---0-0---x---x-0-0-0-0-x-0-0---0-x-0---x---6-3-3end…
  • This is the whole song except the solo.  It was hard to tab too.
    e-|--------------0-----------| Play 7x before first fill 
    b-|--------------------------| riff
    g-|--------------------------|	
    d-|2-2-2--2-2-2----2-2-2-2-2-|
    a-|2-2-2--2-2-0----2-2-2-2-2-|
    e-|0-0-0--0-3-0----0-0-0-3-0-|
    
    e-|5-h4-h3---------------------------------------|…
  • this is the little riff in the middle of the song.
    drop d tuning for this.
    
    /= slide
    x+mute note with left hand
    
    
    e---------------------------------------------------------|
    b---------------------------------------------------------|
    g---------------------------------------------------------|
    d-0---3---5---5/7--00x010x0x-00001000---------------------|
    a-0---3---5---5/7--00x010x0x-00001000---------------------|
    d-0---3---5---5/7--00x010x0x-00001000---------------------|…
  • A                            C#m
    Been sittin’ alone / Thinking about the past
    F#m                             A
    Another lonely night / Another empty glass
         D                                F                      D…
  • Intro:
    -|--------------------------------------------------------------------------------------------|-
    -|--------------------------------------------------------------------------------------------|-
    -|-7--7-10-10h12b13-12h13p107-7h10-12-10-7-10-7h10-12b13-12b13-11r109-9-9h10p9-5-5/7--|-
    -|--------------------------------------------------------------------------------------------|-
    -|--------------------------------------------------------------------------------------------|-
    -|--------------------------------------------------------------------------------------------|-
    
    Wstawek:
    -|--------------------------------------------------------------------------------------------|-
    -|--------------------------------------------------------------------------------------------|-
    -|-10-10p9-10p9-9-7-------------------------------------------------------------------------|-
    -|--------------------------------------------------------------------------------------------|-
    -|--------------------------------------------------------------------------------------------|-
    -|--------------------------------------------------------------------------------------------|-
    
    Środek:
    -|----------------------------------------------------------------------------------------------|-
    -|----------------------------------------------------------------------------------------------|-
    -|-12b13-12b13-12b13-12b13--10b11-7-7-10-10h12-12-12b13-10-13p12-10-12--12/13-12-10-12/13-10--7-|-
    -|----------------------------------------------------------------------------------------------|-
    -|----------------------------------------------------------------------------------------------|-
    -|----------------------------------------------------------------------------------------------|-
    
    -|-------------13----13-15-16b17-15-13--------------------------------------------------------|-
    -|-13-15-13h15----15-------------------15-13--------------------------------------------------|-
    -|-------------------------------------------13h15p1310-10-12/1412-11b13-9-9h10p9-5/7----|-
    -|--------------------------------------------------------------------------------------------|-
    -|--------------------------------------------------------------------------------------------|-
    -|--------------------------------------------------------------------------------------------|-
    
    Wstawek2:
    -|------13-15h16p15~--------------------------------------------------------------------------|-
    -|-13-15--------------------------------------------------------------------------------------|-
    -|--------------------------------------------------------------------------------------------|-
    -|-----------------------3---3--555---------------------------------------------------------|-
    -|-------------------35---5------------------------------------------------------------------|-
    -|--------------------------------------------------------------------------------------------|-
    
    End:
    -|------------------------------------------12/13-13-13-13p12-12108-8/10----}x2-------------|-
    -|--------------------------------------------------------------------------------------------|-
    -|--910-10-10-10p9-975-5/7-----}x2---------------------------------------------------------|-
    -|--------------------------------------------------------------------------------------------|-
    -|--------------------------------------------------------------------------------------------|-
    -|--------------------------------------------------------------------------------------------|-…
  • (intro-this is an eleven, not 2 ones)
    e  |
    B  |--11/12----
    G  |
    D  |  
    A  |  
    E  |
    
    (verse)
    e  |
    B  |
    G  |-----------5-5------
    D  |--1/2-2--2-----5-5-2-2
    A  |
    E  |
    
    (pre chorus)
    e  |--------------7----5
    B  |--11-12/11----------
    
    (chorus-these…
  • THIS IS IN STANDARD TUNING
    
    
    D                        G
    Baby when I think about you
                    D    G
    I think about love
     D                         G
    Darlin don't live without you
               D    G
    And your love
      D…
Наверх