Аккорды «Kids Near Water»

Популярные аккорды Kids Near Water:
алфавиту | просмотрам | случайно
  • Intro 1 Guitar 1 
    e|---------------------------------------------------------------------------|
    B|---------------------------------------------------------------------------|
    G|--777777777-77777777-777777777-77777777------------------------------------|
    D|--777777777-77777777-777777777-77777777------------------------------------|
    A|--555555555-55555555-555555555-55555555------------------------------------|
    D|--555555555-55555555-555555555-55555555------------------------------------|
    Intro…
  • Tuning:Dadgbe
    Mian Riff Guitar 1 X2
    e|---------------------------------------------------------------------------|
    B|---------------------------------------------------------------------------|
    G|55-55-44-44-55-55-44-44-5S777777-999999-77-55-55-44-44-55-55-44-44---------|
    D|55-55-44-44-55-55-44-44--------------------55-55-44-44-55-55-44-44---------|
    A|33-33-33-33-33-33-33-33-3S555555-777777-55-33-33-33-33-33-33-33-33---------|
    D|---------------------------------------------------------------------------|
    Main…
  • Tuning:DADGBE
    
    Intro Guitar 1
    e|---------------------------------------------------------------------------|
    B|---------------------------------------------------------------------------|
    G|-141414141414141414141414141414141414141414141414141414141414141414141414--|
    D|---------------------------------------------------------------------------|
    A|-12121212121212121212121212121212121212121211212121212121212121212121212---|
    D|---------------------------------------------------------------------------|
    Main…
  • Tuning:DADBGe 
    Intro Guitar 1 only X1 
    e|---------------------------------------------------------------------------|
    B|---------------------------------------------------------------------------|
    G|-1212121212121212-1212121212121212-1212121212121212-1212121212121212-------|
    D|---------------------------------------------------------------------------|
    A|-1010101010101010-9-9-9-9-9-9-9-9--1010101010101010-1212121212121212-------|
    D|---------------------------------------------------------------------------|
    
    Main…
  • Tuning:DADGBe
    Intro Guitar1 X2 
    e|---------------------------------------------------------------------------|
    B|---------------------------------------------------------------------------|
    G|-777---------777---------777---------b7------------------------------------|
    D|-777-444-555-777-444-555-777-444-555----444-555----------------------------|
    A|-555-444-555-555-444-555-555-444-555-b5-444-555----------------------------|
    D|-----444-555-----444-555-----444-555----444-555----------------------------|
    
    Intro…
  • Tuning:DADGBe
    Verse Guitar 1 x5 
    e|---------------------------------------------------------------------------|
    B|---------------------------------------------------------------------------|
    G|-----141414141414141414141414-----5-------5---1212121212121212-------------|
    D|xxxx----------------------------5---5---5---5------------------------------|
    A|xxxx-121212121212121212121212-3-------3-------1010101010101010-------------|
    D|xxxx-----------------------------------------------------------------------|
    Verse…
  • Intro riff guitar 1 
    e|---------------------------------------------------------------------------|
    B|-----2---------------------------------------------------------------------|
    G|--------4---3---B3-33-3H4P3-3----------------------------------------------|
    D|--2---2---2---2---------------2--------------------------------------------|
    A|---------------------------------------------------------------------------|
    D|---------------------------------------------------------------------------|
    guitar…
Наверх