Аккорды «Killing Heidi»

Killing Heidi
Killing Heidi - австралийская рок-группа, образованная в Вайолет Таун в 1996 г., изначально как фолк-поп-дуэт брата и сестры - Эллы и Джесс Хупер. Группа выпустила 3 студийных альбома - Reflector (Март, 2000 г.), Present (Октябрь, 2002 г.) и Killing Heidi (Август, 2004 г.). Killing Heidi - австралийская рок-группа, образованная в Вайолет Таун в 1996 г., изначально как фолк-поп-дуэт брата и сестры - Эллы и Джесс Хупер. Группа выпустила 3 студийных альбома - Reflector (Март, 2000 г.), Present (Октябрь, 2002 г.) и Killing Heidi (Август, 2004 г.). Скрыть...
Популярные аккорды Killing Heidi:
алфавиту | просмотрам | случайно
  • Intro and bridge/outro ('they'll be left by the pavement')Distortion on
       D5        E5D5B5         A5  G5
    e|------------------------------------------------------------
    B|------------------------------------------------------------
    G|------------------------------------------------------------
    D|-12--12--121412-9---9-9--9-7-7-5-5---5--5-5--5--5-5--5-5-5-5
    A|-12--12--121412-9---9-9--9-7-7-5-5---5--5-5--5--5-5--5-5-5-5
    D|-12--12--121412-9---9-9--9-7-7-5-5---5--5-5--5--5-5--5-5-5-5…
  • Intro/Verse (clean)
    e|----5----5----5----5----5------5----5----5----5----5---|
    B|-33---33---33---33---33---3-00---00---00---00---00---0-|
    G|-------------------------------------------------------|
    D|-------------------------------------------------------|
    A|-------------------------------------------------------|…
  • INTRO / MAIN RIFF
    
     E -------------0-|-----------------|---------------
     B -------------0-|-----------------|---------------
     G ---------------|-----------------|---------------
     D -99999-x-777---|-22222-x-555-777-|---------------…
  • Intro/Verse Riff 1 
    e|---------------------2---------2---------3----------3-------------------------0---| 
    B|-0--1----0--1-----------------------------------------------------3---------------| 
    G|--------------------------0---------0----------0---------0------------------------|…
  • Intro:
    
    E-------------------------------------------------------------|
    B-------------------------------------------------------------|
    G-------------------------------------------------------------| X 4
    D-------------------------------------------------------------|
    A-------------------------------------------------------------|
    E---9-h-10-p-9--9-h-10-p-9--9-h-10-p-9--9-h-10-p-9--9-h-10-9--|
    
    
    verse…
  • Chords 
              A G5 Bb5 C7 E7 D#7 D7 
              e|--------------------------8-----12-----11-----10---------- 
              B|-2------------------------8-----15-----14-----13---------- 
              G|-2------------------------9-----13-----12-----11----------…
Наверх