Аккорды «Kings Of Leon»

Kings Of Leon
Kings of Leon — американская музыкальная группа, играющая в стиле альтернативный рок, из Нэшвилла, штат Теннесси. Была образована в 1999 году тремя братьями: Калебом (вокал и ритм-гитара), Джаредом (бас-гитара, бэк-вокал и синтезатор) и Натаном (барабаны, ударные музыкальные инструменты и бэк-вокал) Фоллоуиллами совместно с их кузеном Мэтью Фоллоуиллом (соло-гитара и бэк-вокал). Группа получила название в честь отца и деда участников, которые носили имя Леон. Раннее творчество группы представляло… Читать полностью... Kings of Leon — американская музыкальная группа, играющая в стиле альтернативный рок, из Нэшвилла, штат Теннесси. Была образована в 1999 году тремя братьями: Калебом (вокал и ритм-гитара), Джаредом (бас-гитара, бэк-вокал и синтезатор) и Натаном (барабаны, ударные музыкальные инструменты и бэк-вокал) Фоллоуиллами совместно с их кузеном Мэтью Фоллоуиллом (соло-гитара и бэк-вокал). Группа получила название в честь отца и деда участников, которые носили имя Леон. Раннее творчество группы представляло собой оживленную смесь влияний южного рока и гаражного рока. Начиная со своего дебюта в 2003 году, они переросли независимое творчество, достигнув международной известности, в частности в Ирландии, Великобритании и Австралии. Группа также ощутила высокий рост популярности в Канаде и Соединенных Штатах вслед за их альбомом 2008 года Only by the Night. Альбом Only by the Night принес группе три премии Грэмми. По данным на 2009 год, Kings of Leon достигла 9 места в Top 40 синглов Великобритании своим синглом «Sex on Fire». Kings Of Leon издали пятый альбом в октябре 2010 года. Их шестой альбом, Mechanical Bull, был выпущен 24 сентября 2013 года. Студийные альбомы: - Youth and Young Manhood (2003) - Aha Shake Heartbreak (2004) - Because of the Times (2007) - Only by the Night (2008) - Come Around Sundown (2010) - Mechanical Bull (2013) Скрыть...
Популярные аккорды Kings Of Leon:
алфавиту | просмотрам | случайно
  • Standard Tuning:
    
    
    INTRO
    E|7-7-7-7-7-7-7-77-5-5-5-55-3-33-2-22-0-0-0-0-0-0-0-0-0
    B|7-7-7-7-7-7-7-77-5-5-5-55-3-33-2-22-0-0-0-0-0-0-0-0-0
    G|8-8-8-8-8-8-8-88-6-6-6-66-4-44-3-33-1-1-1-1-1-1-1-1-1
    D|9-9-9-9-9-9-9-99-7-7-7-77-5-55-4-44-2-2-2-2-2-2-2-2-2
    A|9-9-9-9-9-9-9-99-7-7-7-77-5-55-4-44-2-2-2-2-2-2-2-2-2
    E|7-7-7-7-7-7-7-77-5-5-5-55-3-33-2-22-0-0-0-0-0-0-0-0-0
    
    
    VERSE…
  • Chords 
    F# : 24432
    A  : 57765
    B  : 79987
    ?  : 04430
    
    
    
    F#/?
    Free- is all that she could bleed
    That's why'll she'll never stay
    White- bare naked in the night
    Just lookin' for some play
    
    Just another girl that…
  • Intro
    
    
    C9		C	    CMaj	C		C7 (let ring)	  Fmaj
    -----0-0-----------0-----|-----0---------0---------|------0-------0-----0----0-
    ----3----3--------1---1--|----0--0------1---1------|-----1-------1-----1----1--
    ---0----0-0------0---0-0-|---0--0-0----0---0-0…
  • Standard Tuning
    
    INTRO
    
    e|--------------------------------------------------------------------------
    B|--------------------------------------------------------------------------
    G|--------------------------------------------------------------------------
    D|---2-----2--------------x4------------------------------------------------
    A|--------------------------------------------------------------------------
    E|-0----0------4s5----------------------------------------------------------
    
    NO…
  • Tuning: Drop D, low to high :  D A D G B e
    
    
     Intro
    e|---------------------------------------------------------------------------|
    B|---------------------------------------------------------------------------|
    G|---------------------------------------------------------------------------|
    D|---------------------------------------------------------------------------|
    A|-7-5-2-7-5-7-9-7-7-5-0-7-5-7-9-7-7-5-2-7-5-7-9-7-7-5-0---------------------|
    D|---------------------------------------------------------------------------|…
  • Intro: D Bm7 x2
    
    
    Verse 1:
    D                                  Bm7
    Weeds blow tall on a broken train track
    D                                  Bm
    Ruth B. draws we're fixin' to get high
    D…
Наверх