Аккорды Кирпичи - Это я сам

Добавлено: @romashka
Дата добавления: 24 Мая 2013г.
Рейтинг:
5.0
Просмотров: 164
Транспонировать - +
   e5   A#5   a5
e---------|
H---------|
G---------| 
D|----------3----2----|
A|----2-----1----0----|
E|----0---------------|

INTRO
e----------------------------------|
H----------------------------------|
G----------------------------------|
D|--2--X-X---2--X-X---2--X-X-----------2-------|
A|--2--X-X---2--X-X---2--X-X---2-3-2---2-------|
E|--0--X-X---0--X-X---0--X-X---------3-0-------|

e5 b5 a5
e---------|
H---------|
G|----------3----2----|
D|----2-----3----2----|
A|----2-----1----0----|
E|----0---------------|

       A                    D#      D     A D# D
Есть один человек который мне не изменит.
          A            D#      D    A D# D
Который будет верен мне до конца...
Этот человек мне безумно верит
И никогда дурного не скажет за глаза про тебя

  A
Он не когда не отдаст меня вам...
   A    A   A   A D# D D# D
Это - я, сам!

Этот человек меня безумно обожает
Он готов пожертвовать всем для меня
Он добр ко мне и никогда не обижает
Он простит мне все , ни в чем не виня

Он никогда не отдаст меня вам
Это я сам


comments powered by Disqus
Наверх