Аккорды «Klank»

Klank
Splicing the Mosh Pit and the Dance Floor, this wrecking machine originally from New York known as KLANK released their debut album "Still Suffering" on the Seattle based Tooth & Nail Records in 1997. Breaking musical boundaries with a sound described as Dancy Aggressive Dark Electronically Infused Groove, KLANK spent 18 weeks on the CMJ Top 40 charts and their monster single "Downside" which was added to over 170 radio stations nationwide. KLANK gained an immense amount of attention and notoriety… Читать полностью... Splicing the Mosh Pit and the Dance Floor, this wrecking machine originally from New York known as KLANK released their debut album "Still Suffering" on the Seattle based Tooth & Nail Records in 1997. Breaking musical boundaries with a sound described as Dancy Aggressive Dark Electronically Infused Groove, KLANK spent 18 weeks on the CMJ Top 40 charts and their monster single "Downside" which was added to over 170 radio stations nationwide. KLANK gained an immense amount of attention and notoriety while forming a strong, loyal fan base with their constant touring and growing reputation for intense live shows. KLANK then made their mark once again with their sophomore release "Numb" which included the crushing single "Blind" which again made it into the top 40 on the CMJ charts. A video was also filmed for "Blind" which become a regular fixture on the Much Music channel. KLANK consists of Daren KLANK Diolosa (ex - Circle Of Dust) on vocals, guitars, Pat Servedio on guitar, keys, & programming, Danny Owsley on guitar, Charlie Parker on bass and Eric Wilkins on drums. On April 20, 2010 KLANK unleashed their "NUMB...Reborn" release which contains 15 tracks of the classic KLANK sound which included guest appearances by Jim Chaffin, Larry Farkas and Mike Phillips. Songs like Don't Count Me Out, Blind, D.F.L. and The Rules tip the scales of heaviness, while songs like Broken, God? and So Very Real lets the bands melodic side shine through in full form. KLANK is presently in pre production for their upcoming "URBAN WARFARE" release and plan to unveil it by the end of this summer. See for yourself how KLANK mesh the aggression and pounce of metal with the infectious drive of the dance floor and intertwine it within a foreground of synths, samples,loops and low end to form a truly unique sound all their own. Hometown: San Jose, CA Genres: Metal / Industrial / Electronic Label: SmokeDogg Productions Members: Daren "Klank" Diolosa - Vox, Gtrs, Pat Servedio -Gtrs, Keys, Programming, Danny Owsley - Gtrs, Eric Wilkins- Drums, Charlie Parker - Bass Скрыть...
Популярные аккорды Klank:
алфавиту | просмотрам | случайно
  • Tuning: Normal
    
    Riff 1:
    E--------------------------------------------------------
    B--------------------------------------------------------
    G--------------------------------------------------------
    D-5/7-5/7-5/8/5-5/7/5-5-7-8-5/7-5/7-5/8/5-5/7/5----------
    A-3/5-3/5-3/6/3-3/5/3-3-5-6-3/5-3/5-3/6/3-3/5/3----------
    E-----------------------------------------------0000000--
    pm…
  • Tuning: Drop D
    
    Riff 1:
    E--------------------------------------------
    B--------------------------------------------
    G--------------------------------------------
    D--------------------------------------------
    A-1-3-1-2----2-1-3-1-2----2-1-3-1-222-333-5--
    D-1-3-1-2-00-2-1-3-1-2-00-2-1-3-1------------
    pm…
  • Tuning: E B G D A E
    
    Riff 1: Electric riff.
    E----------------------------------
    B----------------------------------
    G----------------------------------
    D----------------------------------
    A----6---7---6-----9-8-----8-7-----
    E-55---5---5---5-7-----7-6-----6-5-
    
    It…
  • Tuning: C G C F A D
    
    Intro:
    C---------------------
    G-00-0000-1-00-0000-1-
    C-00-0000-1-00-0000-1-
    pm.. ....   .. ....
    
    Riff 1: 
    C-3-6-10---------------------
    G-3-6-10-2/3-00000-2/3-00000-
    C-3-6-10-2/3-00000-2/3-00000-
    pm…
  • Tuning: Normal
    
    Riff 1:
    E---------------------------------------
    B---------------------------------------
    G---------------------------------------
    D---------------------------------------
    A-9-9/7-9/7-9-9/7-9/7-9-9/7-9/7-7777-55-
    E-9-9/7-9/7-9-9/7-9/7-9-9/7-9/7-7777-55-
    
    Riff…
  • Tuning: C G C F A D
    
    Riff 1:
    D--------------
    A--------------
    F--------------
    C--------------
    G-11-1111-1-11-
    C-11-1111-1-11-
    
    Riff 2: (riff 1 is played underneath)
    D-------
    A-------
    F-------
    C-3-6-5-
    G-1-4-3-
    C-------
    
    Riff…
  • Tuning: Normal
    
    Riff 1:
    e---------------------------------
    B---------------------------------
    G---------------------------------
    D---------------------------------
    A--00-0-0--00-0-0--00-0-0--00-0-0-
    E--00-0-0--00-0-0--00-0-0--00-0-0-
    pm…
  • Tuning: Normal
    
    Riff 1:
    E---------------------------
    B---------------------------
    G---------------------------
    D-------------7----5--------
    A-3/5---------5----3--------
    E-1/3-0000-00---00---000000-
    pm    .... ..   ..   ......
    
    Riff…
  • There is a remix of this song, but it is nothing like this version.
    It contains no guitar at all and is about 3 minutes longer.
    
    Tuning: Normal
    
    Riff 1: 
    E--------------------------------------------------
    B--------------------------------------------------
    G----------------------------------------4---------
    D--------------------------------------3---5-------
    A-------3/2-------33-5-------3/2-------------33-5--
    E-00000-3/2-00000-33-5-00000-3/2-00000-------------
    pm.....…
  • Riff 1:
    E----------------------------|
    B----------------------------|
    G----------------------------|
    D--------------------2-------|
    A-66666666-55555555--2-------|
    E-44444444-33333333--0 x's 3-|
    
    Riff 2:
    E-------------------------------------------|
    B-------------------------------------------|
    G-------------------------------------------|
    D-------------------------------------------|
    A-888-666-888-666-88-66-333333-444444-------|
    E-666-444-666-444-66-44-111111-222222…
  • Tuning: C G C F A D
    
    Riff 1:
    D------------------------------
    A------------------------------
    F------------------------------
    C------------------------------
    G-0-------3/5/3----5-7-0-7-88--
    C-0-00000-3/5/3-00-5-7-0-7-88--
    pm…
  • Tuning: normal
    
    riff 1:
    E------------------------------------------------------------------------------|
    B------------------------------------------------------------------------------|
    G------------------------------------------------------------------------------|
    D-22-------5-----6-----5-----3~------2------5------6-----5------------2--------|
    A-22---------------------------------2--------------------------------2--------|
    E-00---000---000---000---000-----2-1-0--000---000----000----3-5-6-5-3-0…
  • Tuning: normal
    
    Riff 1: Phaser effect.
    E---------------------------------------|
    B---------------------------------------|
    G---------------------------------------|
    D-33-3-55-----------------55-5-77-------|
    A-11-1-33-55-5-77-33-3-55-33-3-55-------|
    E---------33-3-55-11-1-33--------…
  • Tuning: Normal
    
    Riff 1:
    E----------------------------
    B----------------------------
    G----------------------------
    D----------------------------
    A-2-----2-5/77-2-----2-5/33--
    E-2-000-2-3/55-2-000-2-3/11--
    Pm  ...…
  • Tuning: D A D G B E
    
    Intro:
    E-------
    B-------
    G-------
    D-------
    A-0-3-0-
    D-0-3-0-
    
    Riff 1:
    E--------
    B--------
    G--------
    D--------
    A-0-8-10-
    D-0-8-10-
    
    Riff 2:
    E---------------------------------------------
    B---------------------------------------------
    G---------------------------------------------
    D---------------------------------------------
    A-0-3-0-3-6-5-0-3-0-3-7-8-0-3-0-3-6-5-1-8-10--
    D-0-3-0-3-6-5-0-3-0-3-7-8-0-3-0-3-6-5-1-8-10--
    pm..........................................…
  • Tuning: D A D
    
    Riff 1:
    D----------------------------------------
    A-3-33-1111-3-33-1111-3-33-1111-3-3-6-6--
    D-3-33-1111-3-33-1111-3-33-1111-3-3-6-6--
    
    Riff 2:
    D-3/5-3/5-------3/5-3/5-------3/5-3/5--------
    A-1/3-1/3-4-3-2-1/3-1/3-4-3-2-1/3-1/3-6-5-4--
    D---------4-3-2---------4-3-2---------6-5-4--
    
    Riff…
  • Riff 1:
    E------------------------------
    B------------------------------
    G------------------------------
    D------------------------------
    A-33-33-44-44-22-22-11-11-22---
    E-33-33-44-44-22-22-11-11-22---
    pm.. .. .. .. .. ..…
  • Tuning: Normal
    
    Riff 1:
    E----------------------------
    B----------------------------
    G----------------------------
    D---2222-----2222-2---5---4--
    A---2222-----2222-2---3---2--
    E-4-0000---4-0000-0-4---4----
    
    Riff 2:
    E--------------------
    B--------------------
    G--------------------
    D---5---5---4---4----…
Наверх