Аккорды Король и Шут - Воспоминания о былой любви

Добавлено: @romashka
Дата добавления: 16 Марта 2013г.
Рейтинг:
5.0
Просмотров: 755
Транспонировать - +
Вступление:

E|--------------------0--------------------0-2----------------------------
H|----------------------0--------1-----1-3--------3-----------------------
G|------------0-----------0---0------2----------2-------------------------
D|--------2-4------2--------2------2---------0----------------------------
A|--2-3-5--------2---------------0----------------------------------------
E|------------0-----------------------------------------------------------

E|--232---0--------3----------------0--------------0--------------2-------
H|----------3--------3--------1------1-------1-------1----------4---4--4--
G|---------------4-----4---4------0----0---0-----2-----2--2----4------4---
D|-------------5---------5------2--------2-----2---------2----4-----------
A|----------------------------3--------------0---------------2------------
E|----------3-------------------------------------------------------------

E|----------------0-2-3---------3-------------------0-2-------------------
H|----------0-1-3-------------0-------0---------1-3-------3---------------
G|------4-------------------0-------0---------2---------2-----------------
D|----4-------------------2-------2---------2---------0-------------------
A|--2-------------------------------------0-------------------------------
E|--------------------0---------------------------------------------------

E|---232---0--------3-----------------------------------------------------
H|-----------3--------3---------------------------------------------------
G|----------------4-----4---4------0-------0-------2------0---------------
D|--------------5---------5------2-------0-------2-------2----------------
A|-----------------------------3-----3-2-----2-0-----0-3----3-------------
E|-----------3------------------------------------------------------------
     
E|------------2-----------------------------------------------------------
H|---------4----4-4-------------------------------------------------------
G|-------4-------4--------------------------------------------------------
D|-----4------------------------------------------------------------------
A|---2--------------2-----------------------------------------------------
E|------------------------------------------------------------------------


 Em          Am
Дремлет за горой
 D             G
Мрачный замок мой.
 C            Am
Душу мучает порой
 H
Царящий в нем покой.

Для твоих фантазий
Страждущий герой,
О любви моей живой
Все образы со мной.


Припев: 
 Em            Am
Я часто вижу страх
 D          Hm         Em        
В смотрящих на меня глазах.
 Em       Am        D        G
Им суждено уснуть в моих стенах,
 C
Застыть в моих мирах.
Но сердце от любви горит,
Моя душа болит.
И восковых фигур прекрасен вид,
 C             H
Покой везде царит.


Я их приводил
В свой прекрасный дом,
Их вином поил,
И развлекались мы потом.

Иногда у них 
Легкий был испуг
От прикосновений
К нежной шее крепких рук.

Припев

Вот несет одна
Мне свои цветы,
Вот стоит другая,
Погруженная в мечты.

Я пытался их
До смерти рассмешить,
Но пришлось,
Как в старой сказке, просто задушить...

Припев
comments powered by Disqus
Наверх