Аккорды «Kotiteollisuus»

Kotiteollisuus
Kotiteollisuus (переводится как "Ремесленичество") создана тремя бравыми парнями после окончания службы в армии в 1991 году. Они играли вместе с детства, решили научиться играть и создать группу. Свой первый альбом они выпустили в 1996 году. После этого группа стала набирать обороты популярности на финской метал-сцене. На сегодняшний день выпущено восемь альбомов, группа занимает первое место в голосованиях, проводимых финскими журналами и радиоканалами рок-музыки. Группа сейчас находится на… Читать полностью... Kotiteollisuus (переводится как "Ремесленичество") создана тремя бравыми парнями после окончания службы в армии в 1991 году. Они играли вместе с детства, решили научиться играть и создать группу. Свой первый альбом они выпустили в 1996 году. После этого группа стала набирать обороты популярности на финской метал-сцене. На сегодняшний день выпущено восемь альбомов, группа занимает первое место в голосованиях, проводимых финскими журналами и радиоканалами рок-музыки. Группа сейчас находится на вершине славы и её выступления, транслируемые по всюду в Финляндии, потрясают своим безупречным качеством. Настойчивый стиль группы Kotiteollisuus привлекает финские группы следовать за ней. Тяжёлая музыка с тяжелой тематикой песен входит сегодня в обыденный состав программ финских радиоканалов. Группа достигла славы и своим специфическим юмором. Вокалист и гитарист Йоуни Хюнюнен ведёт своеобразную колонку на сайтах Ilosaarirock. Альбомы Hullu ukko ja kotiteollisuus (1996) Aamen (1998) Eevan perintö (1999) Tomusta ja tuhkasta (2000) Kuolleen kukan nimi (2002) Helvetistä itään (2003) 7 (2005) Iankaikkinen (2006) Sotakoira (2008) Команда Йоуни Хюнюнен - гитара/вокал Йари Синкконен Йанне Хонгисто Скрыть...
Популярные аккорды Kotiteollisuus:
алфавиту | просмотрам | случайно
  • Vire: C#-G#-C#-F#-A#-D#
    
    x = dempattuna
    
    
    Alkuriffi
    |-------------------------------------|
    |-------------------------------------|
    |-------------------------------------|
    |--0-0-2-0-3--0-5--0-7-0--------------|
    |--0-0-2-0-3--0-5--0-7-0----10--------|
    |--0-0-2-0-3--0-5--0-7-0-12----12-10--|
    
    
    ...Maailma…
  • Vire: C#-G#-C#-F#-A#-D#
    
    x = dempattuna
    
    
    Alkuriffi                  1.      2.
    |-------------------------|-------|------|
    |-------------------------|-------|------|
    |-------------------------|-------|------|
    |--0-3-2-0-3-0-2-3--0-2-3-|-0-2-3-|-0----|
    |--0-3-2-0-3-0-2-3--0-2-3-|-0-2-3-|-0----|
    |--0-3-2-0-3-0-2-3--0-2-3-|-0-2-3-|-0-2b-|
    
    |-------------------------|
    |-------------------------|
    |-------------------------|
    |--0-3--0-2--0-3--0-------|
    |--0-3--0-2--0-3--0-------|
    |--0-3--0-2--0-3--0-2-2b--|
    
    
    ...Тддllд…
  • Vire: C#-G#-C#-F#-A#-D#
    
    Intro
    |-------------------------------------------------------------------|
    |-------------------------------------------------------------------|
    |-------------------------------------------------------------------|
    |--5-3-3-3-3-3-3-3-6-3-3-3-3-3-3-3-5-3-3-3-3-3-3-3-5-0-3-5-0-3-5-0--|
    |-------------------------------------------------------------------|
    |-------------------------------------------------------------------|
    
    
    |-------------------------------------------------------------------|
    |-------------------------------------------------------------------|
    |-------------------------------------------------------------------|
    |--5-3-3-3-3-3-3-3-6-3-3-3-3-3-3-3-5-3-3-3-3-3-3-3-5-0-3-5-0-3-5-0--|
    |--5-3-3-3-3-3-3-3-6-3-3-3-3-3-3-3-5-3-3-3-3-3-3-3-5-0-3-5-0-3-5-0--|
    |--5-3-3-3-3-3-3-3-6-3-3-3-3-3-3-3-5-3-3-3-3-3-3-3-5-0-3-5-0-3-5-0--|
    
    
    
    ...Miehen…
  • Vire: C#-G#-C#-F#-A#-D#
    
    x = dempattuna
    
    
    Alkuriffi
    |-------------------------------------------------------------------------------|
    |-------------------------------------------------------------------------------|
    |-------------------------------------------------------------------------------|
    |--10-12-12-12-12-12-12-10-10-12-12-12-12~~~3-3--3-5-5-5-5-5-5-5-5-6-6-6-6-5-3--|
    |--10-12-12-12-12-12-12-10-10-12-12-12-12~~~3-3--3-5-5-5-5-5-5-5-5-6-6-6-6-5-3--|
    |--10-12-12-12-12-12-12-10-10-12-12-12-12~~~3-3--3-5-5-5-5-5-5-5-5-6-6-6-6-5-3--|…
  • Vire: C#-G#-C#-F#-A#-D#
    
    |-----------------------------|
    |-----------------------------|
    |-----------------------------|
    |-----------------------------|
    |-----------------------------|
    |--5--3--5--6--5--3--5--6--3--|
    
    |------------------------------------------------------------------|
    |------------------------------------------------------------------|
    |------------------------------------------------------------------|
    |--5--5--3--5--6--5--3--5--6--3--5--5--3--5--6--5--3--5--X-X--X-X--|
    |--5--5--3--5--6--5--3--5--6--3--5--5--3--5--6--5--3--5--X-X--X-X--|
    |--5--5--3--5--6--5--3--5--6--3--5--5--3--5--6--5--3--5--X-X--X-X--|
    
    
    ...Vihattu!...
    |---------------------------------------------------|
    |---------------------------------------------------|
    |---------------------------------------------------|
    |--7-4-4-4-4-4-7-4-4-4-4-4-7-4-4-4-4-4-0------------|
    |--7-4-4-4-4-4-7-4-4-4-4-4-7-4-4-4-4-4-0-7-7-7-7-7--|
    |--7-4-4-4-4-4-7-4-4-4-4-4-7-4-4-4-4-4-0------------|
    
    
    ...Miekkani…
  • Vire: C#-G#-C#-F#-A#-D#
    
    x = dempattuna
    
    
    Alkuriffi:
    
    1-kitara
    |-----------------------------------------------------------|
    |-----------------------------------------------------------|
    |-----------------------------------------------------------|
    |--77777777-33333333-10-10-10-10-10-10-10-10-12-10-9-10--9--|
    |--77777777-33333333-10-10-10-10-10-10-10-10-12-10-9-10--9--|
    |--77777777-33333333-10-10-10-10-10-10-10-10-12-10-9-10--9--|
    
    2-kitara
    |--------------|--------------|-----|
    |--------------|--------------|-----|
    |--7-5-4-5--4--|--54545454...-|--5--|
    |--------------|--------------|-----|
    |--------------|--------------|-----|
    |--------------|--------------|-----|
    
    
    
    ...Ja…
  • Vire: C#-G#-C#-F#-A#-D#
    
    x = dempattuna
    k = kuoleta
    ~ = vibrato 
    h = hammer on
     
    
    Alku
    |------------------------------------------------------------------|
    |------------------------------------------------------------------|
    |------------------------------------------------------------------|
    |-0---0---2-3-0---2---3---3-------------0-0-2-3-0---2---3---3------|
    |-0---0---2-3-0---2---3---3-------------0-0-2-3-0---2---3---3------|
    |-0---0---2-3-0---2---3-------3~--------0-0-2-3-0---2---3-------3--|…
  • Vire: C#-G#-C#-F#-A#-D#
    
    x = dempattuna
    
    
    Alkuriffi         1-3.   4.
    |----------------|------|-------------|
    |----------------|------|-------------|
    |----------------|------|-------------|
    |--0-2--3--3-3-0-|-2--3-|-2--2--2--2--|
    |--0-2--3--3-3-0-|-2--3-|-2--2--2--2--|
    |--0-2--3--3-3-0-|-2--3-|-2--2--2--2--|
    
    
    
    Sдкеisтц
    |-------------------------------------|
    |-------------------------------------|
    |-------------------------------------|
    |--3-------10-------3-----------------|
    |--3-------10-------3--3-2-0----------|
    |--3-------10-------3--------3-0-2-3--|
    
    |--------------------------------------------------|
    |--------------------------------------------------|
    |--------------------------------------------------|
    |--2-2-2-2----2-2-2-2----2-2-2-2-------------------|
    |--2-2-2-2----2-2-2-2-3--2-2-2-2----3-2-0----------|
    |--2-2-2-2-3--2-2-2-2----2-2-2-2-3--------3-0-2-3--|…
  • E              C#m             B               A
    e|-----------------------------------------------------------------
    B|-----------------------------------------------------------------
    G|-4-------4-2-1-2-1---------------1-------------------------------
    D|-----------------------2---------------1---------2---4-2---------
    A|-----------------------------------------------------------------
    E|-----------------------------------------------------------------…
  • Vire: C#-G#-C#-F#-A#-D#
    
    
    x = dempattuna
    
    
    Alkuriffi
    |---------------------------------------------------------------|
    |---------------------------------------------------------------|
    |---------------------------------------------------------------|
    |--0-0-1-1-2-2-3-4--0-1-1-2-2-3-4-0-0-1-1-2-2-3-4--0-1-1-2-2-3--|
    |--0-0-1-1-2-2-3-4--0-1-1-2-2-3-4-0-0-1-1-2-2-3-4--0-1-1-2-2-3--|
    |--0-0-1-1-2-2-3-4--0-1-1-2-2-3-4-0-0-1-1-2-2-3-4--0-1-1-2-2-3--|…
  • Vire: C#-G#-C#-F#-A#-D#
    
    Intro
    |------------------------------------------|
    |------------------------------------------|
    |------------------------------------------|
    |------------------------------------------|
    |------------------------------------------|
    |--0-10-12-0-10-12-0-10-12-0-10b--0-10-12--|
    
    ...Ugh!...
    |-----------------------------------------|
    |-----------------------------------------|
    |-----------------------------------------|
    |--0-10-12-0-10-12-0-10-12-0-10--0-10-12--|
    |--0-10-12-0-10-12-0-10-12-0-10--0-10-12--|
    |--0-10-12-0-10-12-0-10-12-0-10--0-10-12--|
    
    |----------------------------------|
    |----------------------------------|
    |----------------------------------|
    |--0-2-3-0-2-3-0-----0-2-3-0-2-----|
    |--0-2-3-0-2-3-0-----0-2-3-0-2-----|
    |--0-2-3-0-2-3-0-2b--0-2-3-0-2-3b--|
    
    
    
    ...Kohmeisia…
  • Vire: C#-G#-C#-F#-A#-D#
    
    Alkuriffi
    |-----------------------------|
    |-----------------------------|
    |-----------------------------|
    |--5-5-5-6------4-4-4-6-------|
    |--5-5-5----5p6-4-4-4----5p6--|
    |--5-5-5--------4-4-4---------|
    
    
    ...Taivas!...
    |-----------------------------------|
    |-----------------------------------|
    |-----------------------------------|
    |--8--8--8--8--8-8-7--7--7--7--7-7--|
    |--5--5--5--5--5-5-4--4--4--4--4-4--|
    |--5--5--5--5--5-5-4--4--4--4--4-4--|
    
    
    ...Luuletko…
  • Vire: C#-G#-C#-F#-A#-D#
    
    x = dempattuna
    
    Alkuriffi
    |-------------------------------------------------------------------------|
    |-------------------------------------------------------------------------|
    |-------------------------------------------------------------------------|
    |--0-7-12-13-12~~~7-8--8-8-8-8-10-10-10--0-7-12-13-12~~~7-8--8-8-8-3-2-1--|
    |--0-7-12-13-12~~~7-8--8-8-8-8-10-10-10--0-7-12-13-12~~~7-8--8-8-8-3-2-1--|
    |--0-7-12-13-12~~~7-8--8-8-8-8-10-10-10--0-7-12-13-12~~~7-8--8-8-8-3-2-1--|
    
    
    ...Toisiinsa…
  • Vire: C#-G#-C#-F#-A#-D#
    
    x = dempattuna
    
    
    Alkuriffi
    |---------------------|
    |---------------------|
    |---------------------|
    |--2-2-2-----2-2-2----|
    |--2-2-2-----2-2-2----|
    |--2-2-2-3---2-2-2-3--|
       x x x     x x x
    
    
    Kertsi:
    |------------------------------------------------------------------------
    |------------------------------------------------------------------------
    |------------------------------------------------------------------------
    |--8-8-8-5-5-5-10-10-10-12-12-12-8-8-5-5-8-8-8-5-5-5-3-3-3-5-5-5-1-1-0-0-
    |--8-8-8-5-5-5-10-10-10-12-12-12-8-8-5-5-8-8-8-5-5-5-3-3-3-5-5-5-1-1-0-0-
    |--8-8-8-5-5-5-10-10-10-12-12-12-8-8-5-5-8-8-8-5-5-5-3-3-3-5-5-5-1-1-0-0-…
  • Vire: C#-G#-C#-F#-A#-D#
    
    Alkuriffi
    |-----------------------------------|
    |-----------------------------------|
    |-----------------------------------|
    |--2-2-3-0-2-2-3-0-2-2-3-0-2-2-3-0--|
    |--2-2-3-0-2-2-3-0-2-2-3-0-2-2-3-0--|
    |--2-2-3-0-2-2-3-0-2-2-3-0-2-2-3-0--|
    
    
    ...Suuri…
  • Vire: C#-G#-C#-F#-A#-D#
    
    x = dempattuna
    
    
    Alkuriffi
    |----------------------------------------------------------|
    |----------------------------------------------------------|
    |----------------------------------------------------------|
    |--0-0-0--0-0--0-0-0-------0-0-0--0------------------------|
    |--0-0-0--0-0--0-0-0-------0-0-0--0------------------------|
    |--0-0-0--0-0--0-0-0-8-0-8-0-0-0--0-8-8-8-8-7-7-7-7-1-1-1--|
    
    
    |----------------------------------------------------------|
    |----------------------------------------------------------|
    |----------------------------------------------------------|
    |--0-0-0--0-0--0-0-0-8-0-8-0-0-0--0-8-8-8-8-7-7-7-7-1-1-1--|
    |--0-0-0--0-0--0-0-0-8-0-8-0-0-0--0-8-8-8-8-7-7-7-7-1-1-1--|
    |--0-0-0--0-0--0-0-0-8-0-8-0-0-0--0-8-8-8-8-7-7-7-7-1-1-1--|
    
    
    ...Kaatopaikat,…
  • Vire: C#-G#-C#-F#-A#-D#
    
    x = dempattuna
    
    
    Alkuriffi                   1.             2.
    |--------------------------|--------------|--------------|
    |--------------------------|--------------|--------------|
    |--------------------------|--------------|--------------|
    |--0--12--10--7-3--5--3--5-|-7--0-7--0-7--|-7--0-6--0-5--|
    |--0--12--10--7-3--5--3--5-|-7--0-7--0-7--|-7--0-6--0-5--|
    |--0--12--10--7-3--5--3--5-|-7--0-7--0-7--|-7--0-6--0-5--|
    
    
    |--------------------------------------------------------------------|
    |--------------------------------------------------------------------|
    |--------------------------------------------------------------------|
    |--0-0-0-----------------------0-0-0----0-0-0-0-0-0-0-0--------------|
    |--0-0-0-----------------------0-0-0----0-0-0-0-0-0-0-0--------------|
    |--0-0-0----------7--0-6--0-5--0-0-0----0-0-0-0-0-0-0-0-7--0-6--0-5--|…
  • NOTE! Tuning: Eb (E flat)
    
    
    ~intro~
    e|------------------------------------------------------------|
    B|------------------------------------------------------------|
    G|------------------------------------------------------------|
    D|--------3---------3--5-3-2----------------------------------|
    A|--------3---------3--5-3-2----------------------------------|
    E|--0-8-0-1---0-8-0-1--3-1-0----------------------------------|…
  • Vire: C#-G#-C#-F#-A#-D#
    
    Alkuriffi                    1-3.     4.                                   
    |---------------------------|--------|--|
    |---------------------------|--------|--|
    |---------------------------|--------|--|
    |--3-3-3-0--0---0-0---0-0---|-0---0--|--|
    |--3-3-3-0--0---0-0---0-0---|-0---0--|--|
    |--3-3-3-0--0-5-0-0-5-0-0-5-|-0-5-0--|--|…
  • Vire: C#-G#-C#-F#-A#-D#
    
    
    Alkuriffi
    |-----------------------------------------|
    |-----------------------------------------|
    |-----------------------------------------|
    |--2--2--0-2--2-2--0-2--2-2--0-2--2-5--7--|
    |--2--2--0-2--2-2--0-2--2-2--0-2--2-5--7--|
    |--2--2--0-2--2-2--0-2--2-2--0-2--2-5--7--|
    
    
    ...Polttaa…
  • Vire: C#-G#-C#-F#-A#-D#
    
    Alkuriffi
    |-----------------------------------------------------------|
    |-----------------------------------------------------------|
    |-----------------------------------------------------------|
    |--------------2-2-2-2-2-2-2-2-------------4-4-4-4-4-4-4-4--|
    |--3-2-0-------2-2-2-2-2-2-2-2-3-2-0-------4-4-4-4-4-4-4-4--|
    |--------3-2-0-2-2-2-2-2-2-2-2-------3-2-0-4-4-4-4-4-4-4-4--|
    
    
    |-----------------------------------------------------|
    |-----------------------------------------------------|
    |-----------------------------------------------------|
    |--0--2-3--0-3-0--2-3--0-6-5-0--2-3--0-3-0--2-3--0-3--|
    |--0--2-3--0-3-0--2-3--0-6-5-0--2-3--0-3-0--2-3--0-3--|
    |--0--2-3--0-3-0--2-3--0-6-5-0--2-3--0-3-0--2-3--0-3--|
    
    
    ...Ulkona…
  • Vire: C#-G#-C#-F#-A#-D#
    
    x = dempattuna
    
    
    Alkuriffi                                                             1.    2.
    |--------------------------------------------------------------------|-----|----|
    |--------------------------------------------------------------------|-----|----|
    |--------------------------------------------------------------------|-----|----|
    |--0-0-12-0-10--12-0--0-12-0-10-12-----0-0-12-0-10--12-0--0-10-0-9-0-|-7-3-|-7--|
    |--0-0-12-0-10--12-0--0-12-0-10-12-10--0-0-12-0-10--12-0--0-10-0-9-0-|-7-3-|-7--|
    |--0-0-12-0-10--12-0--0-12-0-10-12-----0-0-12-0-10--12-0--0-10-0-9-0-|-7-3-|-7--|
    
    
    |-------------------------------------------------------------|
    |-------------------------------------------------------------|
    |-------------------------------------------------------------|
    |--0-0---0----0----0------------0-0---0----0----0-------------|
    |--0-0---0----0----0------------0-0---0----0----0-------------|
    |--0-0-5-0-3--0-5--0-3--3-5-3-2-0-0-5-0-3--0-5--0-3--3-5-3-2--|…
  • Vire: C#-G#-C#-F#-A#-D#
    
    x = dempattuna
    
    
    Alkuriffi
    |-----------------------------------------------------------|
    |-----------------------------------------------------------|
    |-----------------------------------------------------------|
    |--0--0-------0--------0------0------0------0------0--3--5--|
    |--0--0-------0--------0------0------0------0------0--3--5--|
    |--0--0--10-9-0--13-12-0--8-7-0--6-5-0--4-3-0--2-1-0--3--5--|
    
    
    |-------------------------------------------------------|
    |-------------------------------------------------------|
    |-------------------------------------------------------|
    |--0-0-7-6-5--0-4--3-2---1--0-0-7-6-5--0-4--3-2--0-1----|
    |--0-0-7-6-5--0-4--3-2---1--0-0-7-6-5--0-4--3-2--0-1-1--|
    |--0-0-7-6-5--0-4--3-2---1--0-0-7-6-5--0-4--3-2--0-1----|
    
    
    ...Korkean…
Наверх