Аккорды «Kula Shaker»

Kula Shaker
Английская группа "Kula Shaker" сумела выделиться из всей массы брит-попа 90-х благодаря заимствованию психоделических веяний 60-х годов и умелому вплетению в свои композиции элементов индийской музыки. Криспиан Миллс, сын известной актрисы Хэйли Миллс и режиссера Роя Боултинга, начал свою музыкальную деятельность в составе "Objects of desire", игравших что-то психоделическое. Кстати, там же вместе с ним выступал бас-гитарист и будущий соратник по "Kula Shaker" Алонза Бивэн. Когда банда распалась,… Читать полностью... Английская группа "Kula Shaker" сумела выделиться из всей массы брит-попа 90-х благодаря заимствованию психоделических веяний 60-х годов и умелому вплетению в свои композиции элементов индийской музыки. Криспиан Миллс, сын известной актрисы Хэйли Миллс и режиссера Роя Боултинга, начал свою музыкальную деятельность в составе "Objects of desire", игравших что-то психоделическое. Кстати, там же вместе с ним выступал бас-гитарист и будущий соратник по "Kula Shaker" Алонза Бивэн. Когда банда распалась, Миллс отправился в Индию чтобы почерпнуть восточной духовности. В 1997 г. Криспиан Миллс принял участие в записи альбома The Prodigy - The Fat Of The Land. Его голос можно услышать в треке Narayan. В 2004 г. группа вновь объединилась. Скрыть...
Популярные аккорды Kula Shaker:
алфавиту | просмотрам | случайно
  • Intro:
    
    e|-0-0-0---------------------------------------|
    B|-------3-0-------3-2-0-1-1---1-3-1-----------|
    G|-----------2-2-2-----------0-------2-2-0-2-0-|
    D|---------------------------------------------|
    A|---------------------------------------------|
    E|---------------------------------------------|
    
    
    Verse:
    
    e|-0---0---0--------0---0---------0---3---3------|
    B|-0---2---3--------2---0---------1---3---3------|
    G|-0---2---2--------2---2---------0---0---0------|
    D|-2---2---2--------2---2---------2---0---0------|
    A|-2---0---0--------0---0---------3---2---0------|
    E|-0---0---0--------0---0---------0---3---2------|…
  • standard turning
    
    
    verse:
    
    G|--------------------------------------------------------------------------]
    D|--------------------------------------------------------------------------]
    A|-----8-------8--------------6------8------------------------------------]
    E|---------------------------------------------6-----7-----8----------------]…
  • (chords)
    
    Ab   - 466544 
    Bb   - 113331 
    F     - 133211 
    Eb   - 668886
    C    -  335553 
    C7#9 - x3234x
    B* - 15 15 17 x x x 
    
    B*
    Huh two three ha...
    
    Ab Eb Bb F C
    Na na na na na na na na na (2x)
    
    C
    Well, got a silly little girl,…
  • Bbm7-686666
    G#-4666544
    BbSus4-668866
    
    
    Intro
                       (Play this section when ever Bbsus4 Is shown)
    e}------------6--{---------------}
    B}----------6----{--------6------}
    G}--------8------{------8---8----}
    D}------8--------{----8-------8--}
    A}----6----------{--6------------}
    E}--6------------{---------------}
    
    
    BbSus4(Stumed)
    I…
  • Chords used:	EADGBe
    Db(dim 5):	x4566x
    G:		320003
    Bb:		x1333x
    C:		x32010
    Am7:		x02010
    Bb/A:		x0333x
    C/G:		332010
    Gm:		355333
    
    
    
     Riff1:	 	Riff2:	 	Riff3:
    e:-------3----|----------0----|------------3---
    B:-------0----|----------1----|------------3---
    G:-------0----|----------0----|------------3---
    D:-------0----|----------2----|------------5---
    A:-------2----|----------3----|------------5---
    E:--1/3--3----|-----1/3--3----|------1/3---3---
    
    
    Intro:	(Fade…
  • Chords used:
         EADGBe
    Em:  022000
    B7:  X21200
    C:   332010
    G:   320033
    E:   022100
    
    
    Riff: B7
    e-|------------|
    B-|--------0---|
    G-|------2-----|
    D-|----1-------|
    A-|--2---------|
    E-|------------|
    
    
    Verse 1:
    Em    B7…
  • Intro: Fm - G7 - F - G7 - Fm - G7 - Fm }х2
    
    Fm - G7
    We can't turn back /
    F - B
    We're under attack /
    Fm - B - G7
    Outnumbered too, i believe
    Fm - G7
    Cut down, surrounded / 
    F - B
    All bust up and pounded
    Fm - G7…
Наверх