Аккорды «Kutless»

Kutless
"Позвольте Богу работать с вами, но и сами не забывайте работать с Ним". Джеймс Мид В 1999 в Портленд из Северной Дакоты приехал молодой бас-гитарист Стив "Стю" Бургье с мечтой создать группу. В университетском городке Уорнер Пацифик он познакомился с Райаном, Джоном Самраллом и Кайлом Зингером, которые играли в группе прославления Call Box. Райан Шраут был родом из семьи пастора консервативной церкви, являющегося противником современной христианской музыки и современных доктрин. В момент… Читать полностью... "Позвольте Богу работать с вами, но и сами не забывайте работать с Ним". Джеймс Мид В 1999 в Портленд из Северной Дакоты приехал молодой бас-гитарист Стив "Стю" Бургье с мечтой создать группу. В университетском городке Уорнер Пацифик он познакомился с Райаном, Джоном Самраллом и Кайлом Зингером, которые играли в группе прославления Call Box. Райан Шраут был родом из семьи пастора консервативной церкви, являющегося противником современной христианской музыки и современных доктрин. В момент создания группы Джону Самраллу было 18 лет, а Кайлу Зингеру только 16. Почти все парни в группе любили американские рок-группы, такие как Metallica, Green Day, Incubus и т. п. Из христианских коллективов ребята предпочитали слушать Switchfoot, P.O.D. и Delirious. Название Kutless стало умозаключением из Писания: "Ибо возмездие за грех — смерть, а дар Божий — жизнь вечная во Христе Иисусе, Господе нашем". Крестная смерть, воскрешение и избавление всех верующих во Христа от боли, страданий, увечий и "порезов". Именно на "порезах" было сконцентрировано внимание. Последним в состав Kutless пришел Джеймс Мид, который до этого играл в нескольких известных группах в Портленде. В то время он работал в магазине, где продавались скейты. Как-то в магазин зашел неизвестный ему паренек и завел беседу, увидев на руке Джеймса браслет с христианской символикой. Незнакомец поинтересовался о религиозных взглядах Джеймса, после чего паренек заговорил о церкви, а Джеймс перевел разговор и рассказал парню о Kutless. Удивленный незнакомец, наконец-то, представился Сэтом Эйблом, братом Брендона Эйбла, президента христианского звукозаписывающего лейбла Tooth and nail. Джеймс в этот же день все рассказал остальным своим соратникам, после чего они всей группой перезвонили Сэту, чтобы договориться о записи. Сэт Эйбл не из любопытства разъезжал по маленьким городам, поскольку он был "специальным агентом" Tooth and nail, в полномочия которого входил розыск талантливых музыкантов среди христиан. Прослушивание Kutless было назначено на 11 сентября 2001 года, но, даже несмотря на то, что именно в этот день произошли террористические акты в Нью-Йорке, парни отыграли свой материал. Группе дали пару дней на запись демо, но, не дождавшись, Брендон позвонил раньше и сказал парням, что их приняли на борт. Kutless поехали в Портленд, чтобы забирать документы из университета, но Джеймс остался в городе до тех пор, пока не окончил школу. Сведением дебютного альбома занялся Аарон Спринкл на студии Compound, расположенной в Сиэтле. Стю, успевший принять участие в съемках клипов группы, вскоре покинул состав, а его место занял Джеймс Мид. Дебютный альбом Kutless вышел в 2002 на BEC records. Синглы Your touch, Run, Pride away и Tonight очень сильно раскручивались на христианском радио. Run попала в чарт R&R Top 40, а альбом разошелся тиражом свыше 155000 копий, став самым быстрораспродаваемым альбомом в истории BEC records. Более года релиз находился в top 50 самых продаваемых христианских альбомов. За первый год туров ребята отыграли порядка 200 концертов, которые посетило порядка 200000 человек. В конце августа 2003 Kutless вернулись в студию, где вместе с Аароном Спринклом приступили к записи альбома Sea of faces. Первым синглом, еще до выхода альбома, стал Treason. За альбом группа была номинирована на премию Dove awards в категории "Рок-альбом года". В турне Sea of Faces с Kutless отправились Thousand Foot Krutch и Falling Up. В 2005 вышел альбом Strong tower, выдержанный в традициях поклонения. Позже Kutless присоединились к туру Welcome to Diversity tour, который проводил Тоби Мак (Toby mac). Из состава группы вышли Кайл Митчелл и Кайл Зингер, а на их места пришли Джефф Гилберт и Дэйв Люткенголтер. В марте 2006 группа выпустила релиз Hearts of the Innocent, отправившись в тур с Stellar Kart, Disciple и Falling Up. Песни My Bright Idea и All Of The Words (со Strong tower) официально были включены в молодежный сериал Scrubs, который показывался на канале NBC. Скрыть...
Популярные аккорды Kutless:
алфавиту | просмотрам | случайно
  • Tuning:drop d
    
    verse (play x 3)                                                             
    e|------------------|--------------|-----------------------|-----------------|
    B|------------------|--------------|-----------------------|-----------------|
    G|------------------|--------------|-----------12----------|--------10-------|
    D|------5--8p-5---5-|------8-10p-8-|--------10----12----12-|------8----10----|
    A|----5---------5---|----8---------|-----10----------10----|----8------------|
    D|--5---------------|--8-----------|--10-------------------|--8--------------|
    
    prechorus…
  • Tuning: Drop-D
    
    
    Key: | /  slide up
         |   slide down
         | h  hammer-on
         | p  pull-off
         | ~  vibrato
         | *  harmonic
         | x  Mute note
         | .  Palm mute
    
    Intro: 
      
    Riff 1 gtr.2
    e|---------|
    B|-4-5-4-5-|						
    G|---------|…
  • INTRO AND VERSE
    C5   Ab5     G5    Bb5
    ------------------------------
    ------------------------------
    -5------------------3---------
    -5-5--7------5------3-3-------FINGER PICKED
    -3----7-7----5-5----1---------
    ------6------3----------------
    
    C5…
  • Tuning: Drop-D
    Key: 
    | /  slide up
    |   slide down
    | p  pull-off
    | .  Palm mute 
    
    Riff 1 gtr.2
    e|---------------------------------------------------------|
    B|---------------------------------------------------------|
    G|-------0---0---------0---0-------0-----7-----------------|
    D|-----0-------0-----0-----------0--------------9----------|
    A|---9-------------9-----------9-------9------9-----9/109-|
    D|-0-------0-----0-------0---9-------9------9-----9--------|
    
    Riff…
  • Intro:  G D C (repeated 2x)
    
    G	   D                  C
      Many things in life are hard for me 
    G	   D                  C
      Many things can pull us down 
    G	           D       C
      I don't understand why I do what I do 
    G…
  • Tuning-Dropped d
      Key
      *=palm mute ^=harmonic
      Intro 1-played by a bass, but if you are playing this
      song, and you want to play the bass part do this.
      Also verse 2
      e--------------------------------------------…
  • Instrument: 4 String Bass
    Tuning:     D A D G
    
    intro (0:04)
    G|-----------------------------|
    D|-----------------------------|
    A|-0-1--1--1-3-------1--1--1-3-|
    D|--------------3------------|
    
    
    (0:15)…
  • Tuning:DADGBE
    
    Intro AND VERSEs
    ----------------------------------------------
    ----------------------------------------------
    ----------------------------------------------
    ----------------------------------------------
    -5--6-4-6-5---5--6--4--6--5--5-6-4-6-7-8-6-5--
    -0--0-0-0-0---0--0--0--0--0--0-0-0-0-0-0-0-0--
    
    CHORUS
    ------------------------------------------------
    ------------------------------------------------
    ------------------------------------------------
    -0-0--3-3-8-8-----0-0-3-3-9-9-----1-1--2-2--0---
    -0-0--3-3-8-8-----0-0-3-3-9-9-----1-1--2-2--0---
    -0-0--3-3-8-8-----0-0-3-3-9-9-----1-1--2-2--0---
    
    
    Bridge
    -----------------------------------------------
    -----------------------------------------------
    -----------------------------------------------
    -----------------------------------------------
    --5--6--4--6--5--6--4--6--5--and…
Наверх