Аккорды «Kyuss»

Kyuss
Kyuss заслуженно считаются первой и самой влиятельной группой в жанре стоунер-рока. Эта формация впервые возникла в конце 80х под названием Sons of Kyuss, позже сократив название до Kyuss (произносится "кайас" - от имени персонажа игры Dungeons and Dragons). В состав группы вошли музыканты, позже основавшие самые известные и коммерчески успешные группы в стоунер-роке и смежных жанрах. В 1991 году вышел первый альбом, получивший название Wretch, в который вошли также заново записанные… Читать полностью... Kyuss заслуженно считаются первой и самой влиятельной группой в жанре стоунер-рока. Эта формация впервые возникла в конце 80х под названием Sons of Kyuss, позже сократив название до Kyuss (произносится "кайас" - от имени персонажа игры Dungeons and Dragons). В состав группы вошли музыканты, позже основавшие самые известные и коммерчески успешные группы в стоунер-роке и смежных жанрах. В 1991 году вышел первый альбом, получивший название Wretch, в который вошли также заново записанные треки Sons of Kyuss. Но успех пришел к ним только после записи второй пластинки - Blues for the red sun. Главными козырями группы стали необычный голос фронтмена Джона Гарсии и манера игры гитариста Джоша Хомма, отсылавшие к пустынным мотивам с отстраненностью в мелодиях. Новый альбом, Welcome to the Sky Walley, закрепил позиции жанра. Он записывался уже в измененном составе - басиста Ника Оливьери заменил Скотт Ридер. Во время записи четвертой пластинки за ударной установкой Бранта Бьорка сменил Альфредо Хернандез. Выпустив ...And the Circus leaves town, группа прекратила свое существование, дав основу для новых проектов своих участников. Хомм, Хернандез и Оливьери организовали Queens of the Stone Age - группу, впоследствии названную лучшей в мире журналом NME. Гарсия участвовал в проектах, ставших широко известными в узких кругах - Slo Burn, Unida и Hermano. Хернандез входил в состав Yawning Man и Che, а Оливьери запел в собственной группе Mondo Generator. В 2000 году вышел "бест оф" Kyuss, названный Muchas Gracias. Уже после распада группы вышел их сплит-альбом с Wool. Воссоединились Kyuss однажды - для совместного выступления с QOTSA в Лос-Анджелесе. Та странная смесь хард-рока, блюза и психоделических пассажей, которую играли Kyuss, дала толчок движению, которое сейчас насчитывает тысячи поклонников во всем мире, хотя основные силы стоунер-рока все же базируются в США и Италии. Постепенно вырисовались два направления среди продолжателей дела группы - одни намеренно упрощали музыку и идеологию (благодаря им стоунер стал ассоциироваться с марихуаной, пустыней, автомобилями и, как ни странно, пинболом). Другие стали играть музыку, близкую к Kyuss, но с большим уклоном в психоделию. В любом случае, вклад Kyuss в историю современного рока нельзя переоценить, как и вклад любых пионеров жанра. в 2010 году стало известно о воссоединении группы под названием Kyuss Lives! почти в первоначальном составе (без Джона, но с Bruno Fevery) для весеннего европейского тура Скрыть...
Популярные аккорды Kyuss:
алфавиту | просмотрам | случайно
  • Tuning: C  F  A# D# G  C
    
    
    RIFF A    x4  RIFF B                            x4
    |-----------||------------------------------------||
    |-----------||------------------------------------||
    |-----------||------------------------------------||
    |---------2-||----4-4----4----4-4---4----7s8--7s8-||
    |-2-2--2--2-||----4-4----4----4-4---4----7s8--7s8-||
    |-0-0--0--4-||-0--2-2--0-2--0-2-2-0-2-0--5s6--5s6-||
    
    RIFF…
  • Standard Tuning
    
    A.                                        
    ----------------------------------------------------------------------------
    ----------------------------------------------------------------------------
    --0----0--0--0--0--0--0--0----0--0--0---0--0--0-----------------------------
    -10---10-10-10-10-10-10/12---12-12-12--12-12-12-----------------------------
    --8----8--8--8--8--8--8/10---10-10-10--10-10-10-----------------------------
    ----------------------------------------------------------------------------
    
    B1.…
  • Tune it way the fuck down! B E A D F# b
    
    h - hammer on
    p - pull off
    
    Intro/Verse
    b |-------------------------------------------------| 
    F#|-------------------------------------------------| 
    D |-9-9-9-9-----------------------------------------|
    A…
  • tuning : low to high :c g c f a d
                             or
                          c f a# d# g c
    
    drums
    intro of music on the bass line :
    g-----------------3333---1111--
    d------------------------------
    a---3333---3333----------------…
  • Tune down 1/2 step
    
    Intro:
    
    
    Riff 1:
    
    G------------------
    D-------------9---
    A----5---5-5--7--- repeat
    E--6---6-----------
    
    
    Riff 2/(chorus):
    
    G-------------------------------------------
    D--9--x------5-5---------------------------
    A--7--x--5-7-----7-55-------------5-5--5-55…
  • Tuning: Down 2 Whole Steps to C (C-F-Bb-Eb-G-C)
     
    Intro:
    Guitar 1: plays the 9th fret on the F string
    Guitar 2:
    Riff A. Fill 1. Fill 2.Fill 3.Fill 4.
    C|-----------|----------|------|------|-12b--||
    G|-----------|----------|------|-12b--|------||
    Eb|-12p10----|-7h107h10-|-10b--|------|------||
    Bb|------h12-|----------|------|------|------||
    F|-----------|----------|------|------|------||
    C|-----------|----------|------|------|------||
    
    Rhythm…
  • % - rest
    h - hammer-on
    p - pull-on
    x - muted string
    / - slide up
    (fret number) - sound the note by sliding into it, don't pick
    . - sound the note then dampen immediately
    s - semi-tone bend
    ~ - vibrato
    
    detune all strings…
  • Verse (i guess)
    D------------------------------------------|
    A------------------------------------------|
    F------------------------------------------|
    C-----------------------3h5-5h3-2p0--------|
    G----5---5----7-5-------------------3-2----|
    C--0---0---0-8-------0---------------------|
    
    Chorus?
    D-----------------------------------------------------------|
    A-----------------------------------------------------------|
    F-------10---9----5-4---------------------------------------|
    C-------x----x----x-x--x3------------------3-2--------3-5---|
    G-------8----7----3-2---------0-3-5-0-5-3-0----0-3-5-0------|
    C--0-00--00---00--------------------------------------------|
    
    D------------------------------------------------------------0----|
    A------------------------------------------------------------3----|
    F-------10---9----5-4----------------------------------------2----|
    C-------x----x----x-x--x3-------------------5-3---------3-2--0----|
    G-------8----7----3-2---------0-3-5-0-5-3-0-----0-3-5-0------0----|
    C--0-00--00---00---------------------------------------------0----|
    
    verse
    kinda…
  • Pick hand muting – P.M.===
    Slide down - 
    Vibrato – v
    
    Tuning C F A# D# G c
    
    Verse
    c |----------------------------------------------------------| 
    G |----------------------------------------------------------| 
    D#|---------9v------------7v--------------------------7v—-7v-|
    A#|---------7v------------5v------------8v------------5v—-5v-|
    F…
  • Tuning: C  F  A# D# G  C 
    
                                                                           x3
    |------------------------------------------------------------------------||
    |------------------------------------------------------------------------||
    |---9-9-----7-7-----12-12-----5-5-4-----4-4-----4-4-----4-4-----4-4------||
    |---9-9-----7-7-----12-12-----5-5-4-----4-4-----4-4-----4-4-----4-4------||
    |-x-7-7---x-5-5---x-10-10---x-3-3-2---x-2-2---x-2-2---x-2-2---x-2-2------||
    |------------------------------------------------------------------------||…
  • Tuning: C-F-Bb-Eb
    Notes:
    b - Bend
    h - Hammer-On
    p - Pull-Off
     - Slide Down
    / - Slide Up
    x - Mute Note
    
    
    Verse 1:
    Eb|------------------------------------------------------|
    Bb|----------------------------------------5-------------|
    F…
  • Tuned Down 2 Steps (Low To High: C,G,Eb,Bb,F,C)
    
     Note
    
    *On the repeats, Josh doesn't always play exactly the same thing,
     just listen for it, it's not too tough. It's mainly on the ending riff.
    *He will sometimes use wah…
  • Tuning: C  F  A# D# G  C 
    
    [00:09]
    |--------------------------------------------------------------------------|
    |--------------------------------------------------------------------------|
    |--------------------------------------------------------------------------|
    |-3--3-3-3-3--3--3-3-3-3--6--6-6-6-6--6--6-6-6-6---------------------------|
    |-3--3-3-3-3--3--3-3-3-3--5--5-5-5-5--6--6-6-6-6---------------------------|
    |-1--1-1-1-1--1--1-1-1-1--4--4-4-4-4--4--4-4-4-4---------------------------|
    
    [01:15]
    |--------------------------------------------------------------------------|
    |--------------------------------------------------------------------------|
    |-------------10-10--------------------------------------------------------|
    |-3---3-3-3-s-10-10-----8-8-8-8-8-8--7-7-7-7-7-7---------------------------|
    |-3---3-3-3-s--8--8-----6-6-6-6-6-6--5-5-5-5-5-5---------------------------|
    |-1---1-1-1-s--8--8--------------------------------------------------------|
    
    
    Tablature…
  • tuning note
    		  top	C
    	      2nd	F
    	      3rd	Bb
    	      4th	Eb
    	      5th	G
    	     bottom     C
    
    main riff
    6 ----------------------------------------------------------------------------
    5 ----------------------------------------------------------------------------
    4…
  • Tuning: C-F-Bb-Eb
    Notes: Absolutely great song
    ~ - Let Ring
    h - Hammer-On
    p - Pull-Off
     - Slide Down
    / - Slide Up
    
    
    Intro:
    Eb|----------------------------------------------------------------|
    Bb|----------------------------------------------------------------|
    F…
  • Tuning: C-F-Bb-Eb
    Notes:
    ~ - Let Ring
    / - Slide Up
     - Slide Down
    h - Hammer-On
    p - Pull-Off
    
    Intro:
    Eb|---------------------|
    Bb|---------------------|
    F |--/109/109-0~------|
    C |---------------------| (x17)
    
    Eb|----------------------|
    Bb|----------------------|
    F…
  • Tuning: (Low) C, F, Bb, Eb, G, C (High)
    
    just the basics, it's very simple but sounds good
    
    Main Riff (clean guitar)
     
    C |--------------------||------------------|
    G |--------------------||------------------|
    Eb|--------------------||------------------|
    Bb|--------2--(2)------||-2---2-2----------|
    F…
  • Tuning: C-F-Bb-Eb
    Notes:
    ~ - Let Ring
    h - Hammer-On
    p - Pull-Off
     - Slide Down
    / - Slide Up
    
    Intro: 0:16 - Slight vibrato on the notes you let ring
    Eb|----------------------------------|
    Bb|--7~--9~--7--9--10~--12~--12h14--|
    F…
  • Tuning: C-F-Bb-Eb
    Notes: Secret track 32 minutes in to track 11
    ~ - Let Ring
     - Slide Down
    / - Slide Up
    
    
    Verse 1:        
    Eb|---------------------------------------|
    Bb|---------------------------------------|
    F |---------------------------------------|
    C…
  • Tuning: C-F-Bb-Eb
    
    x : Mutes
    ^ : Bend 
    ~ : Let Ring
    h : Hammer-on
    p : Pull-off
    / : Slide Up
     : Slide Down 
    
    Notes:
    -This song has no chorus so I've broken it up into verses
    
    
    First Verse:
    Eb|------------------------------|
    Bb|------------------------------|…
  • Tuning: C-F-Bb-Eb
    Notes:
    ~ - Let Ring
    h - Hammer-On
    p - Pull-Off
     - Slide Down
    / - Slide Up
    
    Intro:
    Eb|--------|
    Bb|--------|
    F |--/12--|
    C |--------|
    
    
    Verse:
    Eb|-----------------------------------------|
    Bb|------7-7------7-7------7-7--------------|
    F…
  • Tuning: C-F-Bb-Eb
    Notes:
    
    ^ : Bend
    / : Slide Up
    h : Hammer-On
    
    
    Verse:                    / This slide is very fast
    Eb|----------------------------|
    Bb|----------------------------|
    F |-----------------------/12^-|
    C |-0-0-0-0-0---0-0-0-0--------|…
  • Tuning: C  F  A# D# G  C
    
    
    [00:10]
    
    |--------------------------------------------------------------------------|
    |--------------------------------------------------------------------------|
    |--------------------------------------------------------------------------|
    |--------------------------------------------------------------------------|
    |------------10----10-s-12~~~------12-s-8----8----8-s-10~~~----------------|
    |-8-s-10--10----12--------------12---------8---8---------------------------|
    
    
    (variation)
    |--------------------------------------------------------------------------|
    |--------------------------------------------------------------------------|
    |--------------------------------------------------------------------------|
    |----------------------------------14-s-10----10---10-s-12~~~--------------|
    |------------10----10-s-12~~~---12----------8----8-------------------------|
    |-8-s-10--10----12---------------------------------------------------------|
    
    
    [00:58]
    
    |---------|
    |---------|
    |----5--5-|
    |----5--5-|
    |-0--3--3-|
    |---------|
    
    |--------------------------------------------------------------------------|
    |--------------------------------------------------------------------------|
    |--------------------------------5h7----------------------------5----------|
    |-----5h7----------5h7------5h7--0-------5h7----------5h7-------5--5-------|
    |-0-0-0----0-0-0-0-0----0-0-0--------0-0-0----0-0-0-0-0----0-0--3--5-------|
    |------------------------------------------------------------------3-------|
    
    |--------------------------------------------------------------------------|
    |--------------------------------------------------------------------------|
    |--------------------------------5------------------------------5----------|
    |-----5h7----------5h7------5h7--0h7-----5h7----------5h7-------5--5-------|
    |-0-0-0----0-0-0-0-0----0-0-0--------0-0-0----0-0-0-0-0----0-0--3--5-------|
    |------------------------------------------------------------------3-------|
    
    
    [01:21]
    
    |--------------------------------------------|
    |--------------------------------------------|
    |--------------------------------------------|
    |-5-s-7-7-7-7-7-7-7-7-s-9-9-9-9-9-9h10-10-10-|
    |-0-----0-0-0-0-0-0-0-----0-0-0-0-0-----0--0-|
    |--------------------------------------------|
    
    |--------------------------------------------|
    |--------------------------------------------|
    |----------------------------5h7-5-----------|
    |-----5h7----------5h7-------5h7-5-----------|
    |-0-0-0----0-0-0-0-0----0-0------------------|
    |--------------------------------------------|
    
    
    
    [01:42]
    
    |---------------------------------------------------|
    |---------------------------------------------------|
    |-5--5-5--------------5-----------5h7-7-7b9r7-5h7p5-|
    |-5--5-5-5----5---5h7-5---5h7-7-7-5h7-7-7b9r7-5h7p5-|
    |-3--3-3-5----5---5h7-----5h7-7-7-------------------|
    |--------3--0-3-0-----------------------------------|
    
    |---------------------------------------------------|
    |---------------------------------------------------|
    |-5--5-5--------7p5----5h7-7-7-5h7-7p5-5h7-7p5------|
    |-5--5-5-5----5-7p5-7--5h7-7-7-5h7-7p5-5h7-7p5-7----|
    |-3--3-3-5----5-----7--------------------------7----|
    |--------3--0-3-------------------------------------|
    
    |---------------------------------------------------|
    |---------------------------------------------------|
    |-5--5-5--------------5-----------5h7-7-7b9r7-5h7p5-|
    |-5--5-5-5----5---5h7-5---5h7-7-7-5h7-7-7b9r7-5h7p5-|
    |-3--3-3-5----5---5h7-----5h7-7-7-------------------|
    |--------3--0-3-0-----------------------------------|
    
    
    |---------------------------------------------------|
    |---------------------------------------------------|
    |-5--5-5---------7p5----------------------------5---|
    |-5--5-5-5--5-5--7p5---7------------------------5-5-|
    |-3--3-3-5--5-5------7-7------------------------3-5-|
    |--------3--3-3--------5--------------------------3-|
    
    
    
    [03:12]
    
    |-------|
    |-------|
    |-------|
    |-5--7--|
    |-5--7--|
    |-3--5--|…
  • Tuning: C  F  A# D# G  C
    
    
    RIFF A                                                      x2
    |-------------------------------------------------------------||
    |-------------------------------------------------------------||
    |-------------------------------------------------------------||
    |-----------5------------5------------------------------------||
    |---7-----7------7-----7------7--5b7r5-------7--------7b8r7~~~||
    |-0---5-0------0---5-0------0----------5~~-5----5-6-6---------||
    
    
    |--------------------------------------------------------------|
    |--------------------------------------------------------------|
    |--------------------------------------------------------------|
    |--------------------------------------------------------------|
    |---7-----7-----7-----7------7--5b7r5-------7--------7b8r7~~~--|
    |-0---5-0---5-0---5-0---5-0-----------5~~-5----5-6-6-----------|
    
    PLAY…
  • Tuning: C-F-Bb-Eb
    Notes:  A short but awesome song.  This is a very fun song to play and add your own 
    touches to. 
    ~ - Let Ring
    h - Hammer-On
    p - Pull-Off
     - Slide Down
    / - Slide Up
    (-3-) - Triplet
    
    
    Verse:        Main…
Наверх