Аккорды «La Ley»

La Ley
Музыкальная карьера Ольмедо начинается с 1988-го года – во время поездки на родину, в Сантьяго, Бето познакомился с барабанщиком “La Ley”, Маурицио Клаверия. Барабанщик пригласил Луиса вступить в группу, из которой как раз ушли двое из её основателей. Ольмедо дебютировал в качестве певца на первом полнометражном альбоме группы – “Desiertos”, и быстро стал голосом “La Ley”. Луис Альберто “Бето” Куэва Ольмедо (Luis Alberto "Beto" Cuevas Olmedo) – бывший солист ныне несуществующей чилийской рок-группы… Читать полностью... Музыкальная карьера Ольмедо начинается с 1988-го года – во время поездки на родину, в Сантьяго, Бето познакомился с барабанщиком “La Ley”, Маурицио Клаверия. Барабанщик пригласил Луиса вступить в группу, из которой как раз ушли двое из её основателей. Ольмедо дебютировал в качестве певца на первом полнометражном альбоме группы – “Desiertos”, и быстро стал голосом “La Ley”. Луис Альберто “Бето” Куэва Ольмедо (Luis Alberto "Beto" Cuevas Olmedo) – бывший солист ныне несуществующей чилийской рок-группы “La Ley”. Родился Ольмедо в Сантьяго, Чили, а вырос в Монреале, провинция Квебек, Канада; свободно владеет французским, английским и испанским. На данный момент певец обитает в Лос-Анджелесе, штат Калифорния и полностью поглощен сольной карьерой. Семья Ольмедо бежала в Канаду, дабы скрыться от ужасов диктатуры Пиночета. Луис женился (по чилийским законам и ритуалам) на Эстель Мора в 2001-ом. У них двое детей – Мартина и Диего. Музыкальная карьера Ольмедо начинается с 1988-го года – во время поездки на родину, в Сантьяго, Бето познакомился с барабанщиком “La Ley”, Маурицио Клаверия. Барабанщик пригласил Луиса вступить в группу, из которой как раз ушли двое из её основателей. Ольмедо дебютировал в качестве певца на первом полнометражном альбоме группы – “Desiertos”, и быстро стал голосом “La Ley”. Вскоре после этого группа выпустила первый официальный альбом, “Doble Opuesto”; в состав альбома входил кавер на “Angie” группы “Rolling Stones”, один из главных хитов “La Ley” за все время их существования. Примерно с этого момента Ольмедо считался одним из творцов группы – он самостоятельно сочинял тексты и пел в основном свои же произведения. Многие поклонники группы утверждают, что в его музыке явно прослеживается влияние Северной Америки, делающее “La Ley” достаточно уникальными на фоне широкого спектра различных чилийских и латиноамериканских групп. Помимо работы в “La Ley”, Бето принимал участие в нескольких меньших проектах – песня “Loud” вместе с “Masters At Work” (“Малыш Луи” Вега и Кенни “Доуп” Гонзалес) и еще кое-какая работа для их же альбома 2006-го. Также он сделал новую версию песни “Mentira”, когда-то исполненную с “La Ley” на MTV и новую звуковую дорожку к кинофильму “La mujer de mi hermano”. Остальные проекты включали в себя совместную работу с чилийской группой “Los Prisioneros” над их альбомом 2004-го “Manzana”; здесь Ольмедо работал на синтезаторе, гитаре и пел в песнях “Insatisfacción” – переделка классической песни “Rolling Stones” “(I Can't Get No) Satisfaction” и “Eres Mi Hogar”. В уже упомянутом кинофильме “La mujer de mi hermano” Бето играл роль священника, а в последовавшем фильме “Пограничье” (“Borderlands”) Зева Бермана – напротив, лидера местного сатанинского культа. Дискография Альбомы Не официальный "La Ley " 1988 1. "Desiertos" 1989 2. "Doble Opuesto" 1990 3. "La Ley" 1992 4. "Cara de Dios" 1993 5. "Invisible" 1995 6. "Vertigo" 1998 7. "Uno" 2000 8. "La Ley MTV Unplugged" 2001 9. "Libertad" 2003 10. "Historias e Histeria" 2004 Видеография 1. "La Ley MTV Unplugged (DVD)" 2001 2. "El Comienzo de una Historia" 2003 3. "Historias e Histeria" 2004 Видеоклипы 1. "Desiertos" 2. "Angie" 3. "Doble opuesto" 4. "Prisioneros de la piel" 5. "Auto ruta (Feel the Skin)" 6. "Tejedores de ilusión" 7. "El duelo" 8. "Día cero" 9. "Hombre" 10. "Cielo market" 11. "1-800 dual" 12. "Fotofobia" 13. "Ví" 14. "Tanta ciudad" 15. "Aquí" 16. "Fuera de mí" 17. "Eternidad" 18. "Mentira (MTV Unplugged)" 19. "El duelo (MTV Unplugged)" 20. "Intenta amar (MTV Unplugged)" 21. "Amate y salvate" 22. "Más allá" 23. "Mi ley" 24. "Mírate" 25. "Histeria" 26. "Siempre (película crazy beatifull)" 27. "Bienvenido al anochecer" Скрыть...
Популярные аккорды La Ley:
алфавиту | просмотрам | случайно
  • intro
    D-G
    
    D
    EL HOMBRE ESTA ACERCANDOSE HACIA 
                             G
    EL ENCUENTRO CON LA FRONTERA
    D
    EN CAMBIO UNA DECISION
                                    G
    LA PUERTA ABIERTA DE UNA NUEVA ERA
    
    
    (precoro)
    
    Em
    EL…
  • Acordes usados:
        E A D g b e
    A   0 0 2 2 2 0
    A?  0 0 2 2 0 0
    G   3 2 0 0 3 3
    D   0 0 0 2 3 2
    Am  0 0 2 2 1 0
    A2  5 7 7 x x x
    A?2 x 7 7 4 x x
    Am2 x 7 7 5 x x
    D2  x 5 7 7 x x
    
    x= No toques las cuerdas sесаlаdаs con este…
  • (INTRO)
    Am - C - G         Am- C - G       **varias veces**
    E|------------------------------------------------------------------|
    B|------------------------------------------------------------------|
    G|-------5-5--7-9-7-7-7p5-4-4---------------------------------------|
    D|---7-9-----------------------7--------7-9-5-5---------------------|
    A|-7-----------------------------5p7--7---------7-5---7-5-(3)-------|
    E|--------------------------------------------------8---------------|
    
    
    E|---------|-------------|---------------|--------------|-----------|
    B|---------|-------------|---------------|--------------|-----------|
    G|---4-4-5-|-5-5-7-7-7/9-|---------------|---4-----4-5--|---7p9-7---|
    D|---------|-------------|---9-9-7-5-----|-----7--------|-----------|
    A|---------|-------------|-----------7---|-7-----7------|-----------|
    E|---------|-------------|---------------|--------------|-----------|
    
    
    E|--5-5--7--8--8/12--|----------------------------|--7-7--5---------|
    B|-------------------|----------------------------|---------8-5-----|
    G|-------------------|---9--9---8--7--5--5p7-7/9--|-----------------|
    D|-------------------|--11-11--10--9--7-----------|-----------------|
    A|-------------------|--11-11--10--9--7-----------|-----------------|
    E|-------------------|----------------------------|-----------------|…
  • Riff
    
    |--------------------------------------------
    |--------------------------------------------
    |--------------------------------------------
    |--------------------------------------------
    |----------------------------5--7------------
    |-0--3--0--5--3--5--6-5-6-6------------------
    
    Riff
    реrdуnаmе
    voy…
  • Аquн va el intro :
    
             Em                   CM           Em
    E—-0----------------------------------------------------
    B—-0----------------------------------------------------
    G—-0---0-----------------------------0--2---------------
    D—-2-----4-2--------------------0--2-------2/4----------
    A—-3---------0/2-0--2--3—-2---3-------------------------
    E—-3----------------------------------------------------
    
    
    E—-0---0----0----0----0----0----0--------
    B---0---0---1----0----1----0----1--------
    G----0------0----0----0----0----0--------
    D-----------2----2----2----2----2—0—-2-4-
    A-----------3----2----3----2----3--------
    E-----------3----0----3----0----3--------
    
    
    E--------------------------------------------
    B----------3/5—-3------3-3/5—-3--------------
    G—-0-2—-4---------4—-5-----------4—-5--------
    D--------------------------------------------
    A--------------------------------------------
    E--------------------------------------------…
  • E  Esus4  (x  2)
    
    E                                Esus4
    El Ojo De Tu Amor Se Va A Cerrar
            E                                   Esus4
    Y No Sй Si Acaso Vuelva A Despertar
    E                                  Esus4
    Yo…
  • Re
    Nado en sudor y me cubre una nube
    Re
    baja su luz y con su luz me sube
    Mi
    Inmovilizado voy queriendo disipar
    Mi
    la tenencia anormal, o supernatural
    Mi
    y soy presa de un vapor o de un instinto mбs
    Mi
    en las noches de calor…
  • Em              Am      Em    Am
    Te vi llorando por el 
    Como la lluvia que cae al rеvйs
    Y derramaste tu sed
    En una suite de hotel
    
    G    Am   G      Am   G    Am G     Am
    Маliвъ / fuiste tu / Маliвъ / Маliвъ
    
    Em…
  • intro:
    
                         G                                 Am
    1|------3-----3-----3--------3-----3-----3—|-5-4-3----5---4--3----
    2|----3---3-----3----------3---3-----3-----|--------4----------4--
    3|--4-------4-----4------4-------4-----4---|----------------------
    4|-5--------------------5------------------|----------------------
    5|-----------------------------------------|----------------------
    6|-----------------------------------------|----------------------…
  • C  B  E  (repite en toda la estrofa)
    
    La Perpetuidad
    Esa Cadencia Que Respiras
    Маrсаrб Tu Toque De Аgоnна
    Esta Diosa Es
    La Dependencia Que Martillas
    Noche Y Dна Ves Por Tu Ventana
    
    C     D    E    C         D       E
    Despojamiento…
  • los acordes van con LAm y LA7
    los pre coros van con SIm y MI
    los coros van asi: MIm  DO  SOL  RE
    
    Am  D7  Am  D7   (x  2)
    
    Am                                    D7
    Sale El Sol Y Sigo Arrastrando Noche
                 Am
    Hay…
  • Bm                     G
    Hombres femeninos en un bar
       A       Bm
    Buscan a mujeres masculinas
          G        A        Bm     G  A
    que esten dispuestas a jugar
      Bm         G    A
    (jugar, jugar, jugar)
    
     Bm…
  • A  C#m  
    
    A Veces Cuando Yo Me Pierdo 
    Y Busco Una Motivacion
    Las Cosas Caen Y No Las Siento
    No Se A Donde Voy.
    
    Buscame hi he hi he hi he
    Dulce Amor ho ho ho ho
    Buscame hi he hi he hi he
    Dulce Amor ho ho ho ho
    
    A Veces…
  • Intro:
    La  - Sol
    
     LA               SOl
    Mirame a los ojos y mira este lugar 
    todas las heridas quieren respirar
    han envejecido adictos al poder 
    quebran sus arrugas por una nueva piel
    
    Do     Lam         Sol
    En la sombra…
  • INTRO: E G#m B B    E G#m B B
    
    VERSO 1:
    E                   G#m   B                      B
     Mi tesoro es un lugar      escondido entre las nubes
    E                         G#m  B                      B
     Vuela el cielo sobre…
  • Am  E  G  Dm  C  (Bm)
    
    Am        E     G
    Oh Angie, Angie, When Will
    
          F                 C     (Em)
    Those Dark Clouds Disapear.
    Am        E     G
    Oh Angie, Angie, When Will
        F               C    
    It Lead Us From Here.…
  • Do     Sim 
    1000 асоs despues de la inundасiуn
    
    Do     Sim      Do    Sim        MiM
    Que acabo con la emergente raza universal
    
    Do     Sim       Do    
    Un Dios aparecio y en instantes
    
    Do     Sim       Do            MiM
    Concibio…
  • G  G#  Bb 
    
    G
    Maldices Lo Pesado De Esta Hora
                  G#                   Bb 
    Mas Ya No Sientes Las Ganas De Estar,
    G
    Maldices Lo Pesado De Tu Obra
                   G#                  Bb 
    Mas Ya No Sientes Delirio…
  • Gm                                    Dm
    Si je cale droit vers ma profonde souffrance 
    Gm                                     Dm
    Si je nage dans un grand verre qui est vide 
             Cm                     F
    Remarque bien…
  • Intro:
    ======
    With wah wah (ah ah ah ah ah________)
    |--------------------------|---------------------------|
    |--------------------------|---------------------------|
    |-4--4--4-4-4-4--7--7-7-7-7|-9---9-9-9-9--7h9-9-9--9---|
    |-4--4--4-4-4-4--7--7-7-7-7|-9---9-9-9-9--7h9-9-9--9---|
    |--------------------------|---------------------------|
    |--------------------------|---------------------------|
    
    Verse:
    Acoustic…
  • Intro: 
           Am          C          G           E            Am
    1|-----------|-----------|----------|-----------|-5-----------
    2|-----------|-------1---|-------3--|-------0---|---5---------
    3|-------5---|-----0---0-|-----4--4-|-----1---1-|-----5-------
    4|-----7---7-|---2-------|---5------|---2-------|-------7-----
    5|---7-------|-3---------|-5--------|-2---------|---------7---
    6|-5---------|-----------|----------|-----------|-----------5-…
Наверх