Аккорды La rondalla de Saltillo - Como

Добавлено: @romashka
Дата добавления: 22 Августа 2016г.
Рейтинг:
0.0
Просмотров: 22
Транспонировать - +
INRODUCCION(REQUINTO):
   G               B7              Em               G7  
E|-7-8-8-7-7---------8-8-7-7---------8-8-7-7----------8-8-7-7 
B|-8--------------------------------------------------------- 
G|-7---------7-6-7-8---------8-7-8-9---------9-8-9-10-------- 
D|----------------------------------------------------------- 
A|----------------------------------------------------------- 
E|----------------------------------------------------------- 
 
   C         Cm       G          E  Am    D7         G    D7  
E|---10-10-8-8-7--------12-12-10-10-8-8-8-8-7---------------- 
B|-8-------------10-8-7-----------------------10-8-7-8------- 
G|----------------------------------------------------------- 
D|----------------------------------------------------------- 
A|----------------------------------------------------------- 
E|-----------------------------------------------------------  
 
(1) 
 G                    B7  
COMO IMAGINAR QUE LA VIDA SIGUE IGUAL 
 Em                       G7  
COMO SI TUS PASOS YA NO CRUZAN EL PORTAL 
 C          Cm  G          E  
COMO PRETENDER, ESTA REALIDAD 
 Am                            Cm          D7  
COMO SI HASTA AYER BRILLABA EL SOL EN TU MIRAR 
 
(2) 
 G                   B7  
COMO CONSOLAR А LA ROSA Y AL JAZMIN 
 Em                     G7  
COMO SI TU RISA YA NO SE OYE EN EL JARDIN 
 C              Cm           G         E7  
COMO BЕ DЕ MENTIRLES QUE MAÑANA VOLVERAS 
 Am          D7             G  D7  
COMO DESPERTAR SI TU NO ESTAS 
 
(REQUINTO) 
 
(2) 
COMO CONSOLAR А LA ROSA Y AL JAZMIN 
COMO SI TU RISA YA NO SE OYE EN EL JARDIN 
COMO BЕ DЕ MENTIRLES QUE MAÑANA VOLVERAS 
COMO DESPERTAR SI TU NO ESTAS.
comments powered by Disqus
Наверх