Аккорды La rondalla de Saltillo - El dia de tu boda

Добавлено: @romashka
Дата добавления: 14 Сентября 2016г.
Рейтинг:
0.0
Просмотров: 37
Транспонировать - +
           D  
 1 ----2-3-5--7-5-3-2--2-3-5--5-3-2-- 
 2 ----3-5-7--8-7-5-3--3-5-7--7-5-3-- 
 3 --2-------------------------------  
 
Se acerca ya 
             A7   
el dia de tu boda 
       D                     A7    
realizaras tus sueños de ilusión 
           D  
te vas con el  
   D7          G  
pensando ser dichosa 
    A7    D       A7          D  
y a mi me dejas herido el corazón 
 
            A7  
Seras la estrella 
                  D  
que alumbre mi camino 
          A7  
desde lo lejos 
                 D  
sin poderte alcanzar 
                D7  
por que al marcharte 
                G  
me destrozas el alma 
      A7     D       A7        D     
y un gran recuerdo a mi me dejaras 
 
Hablado:
" Cuando digas que si 
                       A7  
  piensa que sera para siempre 
   
  pero sabe una cosa 
       D  
  que siempre te quise 
   
  y que ahora para decir 
                 A7  
  te amo, mejor digo 
        D  
  te perdono "   
 
Nota:  Mientras se dice el verso de arriba, se toca este requinto 
 
           (      Tremoleado       )       
                                  A7  
 1 ----2-3-5------7---5---3---2---0-- 
 2 ----3-5-7------8---7---5---3---2-- 
 3 --2------------------------------- 
           (      Tremoleado       )  
           D                      A7  
 1 ----2-3-5------7---5---3---2---0-- 
 2 ----3-5-7------8---7---5---3---2-- 
 3 --2-------------------------------  
           D   
         
 1 --5-7-3-2-- 
 2 --7-8-5-3-- 
 3 -----------  
 
            A7  
Pero si un dia 
                   D  
te traiciona el destino 
            A7  
tu buena estrella 
                D   
te comienza a fallar 
                D7  
piensa en el hombre  
                  G  
que te estara esperando  
 A7       D  
cura su herida 
          A7         D  
que el te ha de consolar  
 
 1 ----2-3-5-- 
 2 ----3-5-7-- 
 3 --2--------
comments powered by Disqus
Наверх