Аккорды «Lagwagon»

Lagwagon
Группа из Южной Калифорнии с абсолютно типичным для тех мест панковым саундом — немного Bad Religion, немного NOFX и много и того и другого вместе взятого. Lagwagon — это не только ценный мех, но и вокал Joey, гитара в исполнении Chris и Jesse, a также стучальщик Dave который пришел из Rich Kids On LSD, чтобы сменить покойного Derrick'а. Группа образовалась типичным образом — Joey бренчал в банде Lethal Dose, металлический кроссоверный коллектив а-ля D.R.I. И ребят ждало чисто металлическое патлатое… Читать полностью... Группа из Южной Калифорнии с абсолютно типичным для тех мест панковым саундом — немного Bad Religion, немного NOFX и много и того и другого вместе взятого. Lagwagon — это не только ценный мех, но и вокал Joey, гитара в исполнении Chris и Jesse, a также стучальщик Dave который пришел из Rich Kids On LSD, чтобы сменить покойного Derrick'а. Группа образовалась типичным образом — Joey бренчал в банде Lethal Dose, металлический кроссоверный коллектив а-ля D.R.I. И ребят ждало чисто металлическое патлатое будущее с длиннющими героическими гитарными соло. Но после того, как пути Lethal Dose пересеклись с панк-группой Section 8, из этих двух команд образовались панки Lagwagon. В историю панк-рока Lagwagon войдут в первую очередь как группа, чей альбом был первым (кроме NOFX) выпущенным на фирме вокалиста NOFX Fat Wreck Chords, конечно имеется в виду диск 'Duh'. Произошло все просто — Joey однажды подошел к Mike и сказал: "Ходит слух что ты делаешь собственную фирму. Вот тебе наша демка!". На следующий день Mike ему перезвонил и сказал "Давайте делать альбом!". И в результате Joey бросил свою работу маляра. Примечание: до этого Lagwagon успели лишь встрять в один из сборников Lookout Records!, откуда благополучно слиняли, что впрочем неудивительно, ибо стиль Lagwagon неотделим от конгломерата Epitaph/Fat Wreck. Скрыть...
Популярные аккорды Lagwagon:
алфавиту | просмотрам | случайно
  • G|----------------|----------------|----------------|----------------|
    D|----------------|----------------|----------------|----------------|
    A|----------------|----------------|----------------|----------------|
    E|0-0-0-0-0-0-0-0-|0-0-0-0-0-0-0-0-|4-4-4-4-4-4-4-4-|4-4-4-4-4-4-4-4-|
    
    G|----------------|----------------|----------------|----------------|
    D|----------------|----------------|----------------|----------------|
    A|----------------|----------------|----------------|----------------|
    E|0-0-0-0-0-0-0-0-|0-0-0-0-0-0-0-0-|2-2-2-2-2-2-2-2-|2-2-2-2-2-2-2-2-|
    
    G|----------------|----------------|----------------|----------------|
    D|----------------|----------------|----------------|----------------|
    A|----------------|----------------|----------------|----------------|
    E|7---7---7---7-7-|7---7---7-------|4---4---4---4-4-|4---4---4-------|
    
    G|----------------|----------------|----------------|----------------|
    D|----------------|----------------|----------------|----------------|
    A|----------------|----------------|9---9---9---9-9-|9---9---9-------|
    E|9---9---9---9-9-|9---9---9-------|----------------|----------------|
    
    G|----------------|----------------|----------------|----------------|
    D|----------------|----------------|----------------|----------------|
    A|----------------|----------------|----------------|----------------|
    E|7---7---7---7-7-|7---7---7-------|4---4---4---4-4-|4---4---4-------|
    
    G|----------------|----------------|----------------|----------------|
    D|----------------|----------------|----------------|----------------|
    A|----------------|----------------|9---9---9---9-9-|9---9---9-------|
    E|9---9---9---9-9-|9---9---9-------|----------------|----------------|
    
    G|--------8---11--9---8-----------|--------8---11--9---8-----------|
    D|9---11------------------11--9---|9---11------------------11--9---|
    A|--------------------------------|--------------------------------|
    E|--------------------------------|--------------------------------|
    
    G|--------------------------------|--------------------------------|
    D|--------10--13--11--10----------|--------10--13--11--10----------|
    A|11--13------------------13--11--|11--13------------------13--11--|
    E|--------------------------------|--------------------------------|
    
    G|--------------------------------|--------------------------------|
    D|--------8--11---9---8-----------|--------8---11--9---8-----------|
    A|9---11------------------11--9---|9---11------------------11--9---|
    E|--------------------------------|--------------------------------|
    
    G|---------------/9---9---9---9---|9---9---9---9---9---9---8-------|
    D|--------6---9-------------------|----------------------------11--|
    A|7---9---------------------------|--------------------------------|
    E|--------------------------------|--------------------------------|
    
    G|----------------|----------------|----------------|----------------|
    D|----------------|----------------|----------------|----------------|
    A|----------------|----------------|9---9---9---9-9-|9---9---9-------|
    E|9---9---9---9-9-|9---9---9-------|----------------|----------------|
    
    G|--------8---11--9---8-----------|--------8---11--9---8-----------|
    D|9---11------------------11--9---|9---11------------------11--9---|
    A|--------------------------------|--------------------------------|
    E|--------------------------------|--------------------------------|
    
    G|--------------------------------|--------------------------------|
    D|--------10--13--11--10----------|--------10--13--11--10----------|
    A|11--13------------------13--11--|11--13------------------13--11--|
    E|--------------------------------|--------------------------------|
    
    G|--------------------------------|--------------------------------|
    D|--------8--11---9---8-----------|--------8---11--9---8-----------|
    A|9---11------------------11--9---|9---11------------------11--9---|
    E|--------------------------------|--------------------------------|
    
    G|---------------/9---9---9---9---|9---9---9---9---9---9---8-------|
    D|--------6---9-------------------|----------------------------11--|
    A|7---9---------------------------|--------------------------------|
    E|--------------------------------|--------------------------------|
    
    G|----------------|----------------|----------------|----------------|
    D|----------------|----------------|----------------|----------------|
    A|----------------|----------------|----------------|6-6-6-6-6-6-----|
    E|0-0-0-0-0-0-0-0-|4-4-4-4-4-4-----|2-2-2-2-2-2-2-2-|----------------|
    
    G|----------------|----------------|----------------|----------------|
    D|----------------|----------------|----------------|----------------|
    A|4-4-4-4-4-4-4-4-|4-4-4-4-4-4-4-4-|----------------|----------------|
    E|----------------|----------------|0-0-0-0-0-0-0-0-|0-0-0-0-0-0-0-0-|
    
    G|--------8---11--9---8-----------|--------8---11--9---8-----------|
    D|9---11------------------11--9---|9---11------------------11--9---|
    A|--------------------------------|--------------------------------|
    E|--------------------------------|--------------------------------|
    
    G|--------------------------------|--------------------------------|
    D|--------10--13--11--10----------|--------10--13--11--10----------|
    A|11--13------------------13--11--|11--13------------------13--11--|
    E|--------------------------------|--------------------------------|
    
    G|--------------------------------|--------------------------------|
    D|--------8--11---9---8-----------|--------8---11--9---8-----------|
    A|9---11------------------11--9---|9---11------------------11--9---|
    E|--------------------------------|--------------------------------|
    
    G|---------------/9---9---9---9---|9---9---9---9---9---9---8-------|
    D|--------6---9-------------------|----------------------------11--|
    A|7---9---------------------------|--------------------------------|
    E|--------------------------------|--------------------------------|
    
    G|----------------|----------------|----------------|----------------|
    D|----------------|----------------|----------------|----------------|
    A|----------------|----------------|9---9---9---9-9-|9---9---9-------|
    E|9---9---9---9-9-|9---9---9-------|----------------|----------------|
    
    G|--------8---11--9---8-----------|--------8---11--9---8-----------|
    D|9---11------------------11--9---|9---11------------------11--9---|
    A|--------------------------------|--------------------------------|
    E|--------------------------------|--------------------------------|
    
    G|--------------------------------|--------------------------------|
    D|--------10--13--11--10----------|--------10--13--11--10----------|
    A|11--13------------------13--11--|11--13------------------13--11--|
    E|--------------------------------|--------------------------------|
    
    G|--------------------------------|--------------------------------|
    D|--------8--11---9---8-----------|--------8---11--9---8-----------|
    A|9---11------------------11--9---|9---11------------------11--9---|
    E|--------------------------------|--------------------------------|
    
    G|---------------/9---9---9---9---|9---9---9---9---9---9---8-------|
    D|--------6---9-------------------|----------------------------11--|
    A|7---9---------------------------|--------------------------------|
    E|--------------------------------|--------------------------------|
    
    G|----------------|----------------|----------------|----------------|
    D|----------------|----------------|----------------|----------------|
    A|----------------|----------------|----------------|6-6-6-6-6-6-----|
    E|0-0-0-0-0-0-0-0-|4-4-4-4-4-4-----|2-2-2-2-2-2-2-2-|----------------|
    
    G|----------------|----------------|----------------|----------------|
    D|----------------|----------------|----------------|----------------|
    A|4-4-4-4-4-4-4-4-|4-4-4-4-4-4-4-4-|----------------|----------------|
    E|----------------|----------------|0---------------|----------------|
    
    G|----------------|----------------|----------------|----------------|
    D|----------------|----------------|----------------|----------------|
    A|----------------|----------------|----------------|----------------|
    E|4-4-4-4-4-4-4-4-|4-4-4-4-4-4-4-4-|0-0-0-0-0-0-0-0-|0-0-0-0-0-0-0-0-|
    
    G|----------------|----------------|----------------|----------------|
    D|----------------|----------------|----------------|----------------|
    A|----------------|----------------|----------------|----------------|
    E|4-4-4-4-4-4-4-4-|4-4-4-4-4-4-4-4-|5-5-5-5-5-5-5-5-|5-5-5-5-5-5-5-5-|
    
    G|----------------|----------------|----------------|----------------|
    D|----------------|----------------|----------------|----------------|
    A|6-6-6-6-6-6-6-6-|4-4-4-4-4-4-4-4-|----------------|----------------|
    E|----------------|----------------|0-0-0-0-0-0-0-0-|5---------------|
    
    G|--------8---11--9---8-----------|--------8---11--9---8-----------|
    D|9---11------------------11--9---|9---11------------------11--9---|
    A|--------------------------------|--------------------------------|
    E|--------------------------------|--------------------------------|
    
    G|--------------------------------|--------------------------------|
    D|--------10--13--11--10----------|--------10--13--11--10----------|
    A|11--13------------------13--11--|11--13------------------13--11--|
    E|--------------------------------|--------------------------------|
    
    G|--------------------------------|--------------------------------|
    D|--------8--11---9---8-----------|--------8---11--9---8-----------|
    A|9---11------------------11--9---|9---11------------------11--9---|
    E|--------------------------------|--------------------------------|
    
    G|---------------/9---9---9---9---|9---9---9---9---9---9---8-------|
    D|--------6---9-------------------|----------------------------11--|
    A|7---9---------------------------|--------------------------------|
    E|--------------------------------|--------------------------------|
    
    G|----------------|----------------|----------------|----------------|
    D|----------------|----------------|----------------|----------------|
    A|----------------|----------------|9---9---9---9-9-|9---9---9-------|
    E|9---9---9---9-9-|9---9---9-------|----------------|----------------|
    
    G|--------8---11--9---8-----------|--------8---11--9---8-----------|
    D|9---11------------------11--9---|9---11------------------11--9---|
    A|--------------------------------|--------------------------------|
    E|--------------------------------|--------------------------------|
    
    G|--------------------------------|--------------------------------|
    D|--------10--13--11--10----------|--------10--13--11--10----------|
    A|11--13------------------13--11--|11--13------------------13--11--|
    E|--------------------------------|--------------------------------|
    
    G|--------------------------------|--------------------------------|
    D|--------8--11---9---8-----------|--------8---11--9---8-----------|
    A|9---11------------------11--9---|9---11------------------11--9---|
    E|--------------------------------|--------------------------------|
    
    G|---------------/9---9---9---9---|9---9---9---9---9---9---8-------|
    D|--------6---9-------------------|----------------------------11--|
    A|7---9---------------------------|--------------------------------|
    E|--------------------------------|--------------------------------|
    
    G|----------------|
    D|9---------------|
    A|----------------|
    E|----------------|…
  • Intro:
    e-|--------------8-10-12-10-8-----------------------|
    B-|-8-10-12-10-8--------------8-10-12-10-8-7-7-8-10-|
    G-|-------------------------------------------------|
    D-|-------------------------------------------------|
    A-|-------------------------------------------------|
    E-|-------------------------------------------------|
    
    Verse:
    e-|-----------------------------------------------------------------|
    B-|-----------------------------------------------------------------|
    G-|-----------------------------------------------------------------|
    D-|-----------------5-5-5-5-5-5-5-5-----------------7-7-7-7-7-7-7-7-|
    A-|-5-5-5-5-5-5-5-5-3-3-3-3-3-3-3-3-5-5-5-5-5-5-5-5-5-5-5-5-5-5-5-5-|
    E-|-3-3-3-3-3-3-3-3-----------------3-3-3-3-3-3-3-3-----------------|
    
    Chorus:
    e-|-------------------------------------------------------------------------
    B-|-------------------------------------------------------------------------
    G-|---------------------------------12-14-12-11-9-7-9-----------------------
    D-|-5-5-5-5-5-5-5-5-7-7-7-7-7-7-7-7-xx-xx-xx-xx-x-x-x-5-5-5-5-5-5-5-5-7-7-7-
    A-|-3-3-3-3-3-3-3-3-5-5-5-5-5-5-5-5-10-12-10--9-7-5-7-3-3-3-3-3-3-3-3-5-5-5-
    E-|-------------------------------------------------------------------------
    
    e-|-------------------------------------|
    B-|-------------------------------------|
    G-|-------------------------------------|
    D-|-7-7-7-7-7-----------------7-7-7-7-7-|
    A-|-5-5-5-5-5-5-5-5-5-5-5-5-5-5-5-5-5-5-|
    E-|-----------3-3-3-3-3-3-3-3-----------|
    
    Fade…
  • Chords:
    Hi A D    A   B   C   G#   C#   D#   Eii   Fii   G#ii 
     Aii   
    e-------------------------------------------------------------------------------
    b--9-----------------------------------------------------------------------------
    g--8--7-------------------------------6---8------9-----10----13----14
    d--6--7-----7---9----10---6------6---8------9-----10----13----14
    a------5-----7---9----10---6------4---6------7------8-----11----12
    E------------5----7-----8----4---------------------------------------------
    
    Verses:…
  • Intro:
    |--------------------------------------------------|
    |--------------------------------------------------|
    |-9-7-6-7-----9-7-6-7-----9-7-6-7-----7-6-4-2------|
    |-0-0-0-0-----0-0-0-0-----0-0-0-0-----0-0-0-0------|
    |--------------------------------------------------|
    |--------------------------------------------------|
    
    |---------------------------|-------------------------|
    |---------------------------|-------------------------|
    |-9-7-6-7-7-7-6-6-6-7-7-7-7-|-7-6-4-2-2-2-7-7-7-6-6-6-|
    |-0-0-0-0-0-0-0-0-0-0-0-0-0-|-0-0-0-0-0-0-0-0-0-0-0-0-|
    |---------------------------|-------------------------|
    |---------x3----------------|----------x1-------------|x2
    
    Riff:…
  • Guitar 1 
    Fig. 1
    |------------------------------------------------------------------|
    |------------------------------------------------------------------|
    |-.-.-.-.-.-.-.--.-.-.-.-.-.-.--.-.-.-.-.-.-.--.-.-.-.-.-.-.-------|
    |-5-5-5-5-5-5-5--5-5-5-5-5-5-5--5-5-5-5-5-5-5--5-5-5-5-5-5-5-------|
    |-5-5-5-5-5-5-5--5-5-5-5-5-5-5--5-5-5-5-5-5-5--5-5-5-5-5-5-5-------|
    |-3-3-3-3-3-3-3--3-3-3-3-3-3-3--3-3-3-3-3-3-3--3-3-3-3-3-3-3-------|
    
    |------------------------------------------------------------------|
    |------------------------------------------------------------------|
    |-.-.-.-.-.-.-.--.-.-.-.-.-.-.--.-.-.-.-.-.-.--.-.-.-.-.-.-.-------|
    |-7-7-7-7-7-7-7--7-7-7-7-7-7-7--7-7-7-7-7-7-7--7-7-7-7-7-7-7-------|
    |-7-7-7-7-7-7-7--7-7-7-7-7-7-7--7-7-7-7-7-7-7--7-7-7-7-7-7-7-------|
    |-5-5-5-5-5-5-5--5-5-5-5-5-5-5--5-5-5-5-5-5-5--5-5-5-5-5-5-5-------|
    
    Fig.…
  • Intro (Acoustic) (play it rather slower than the major part of the song.)
    
    use these chords:
      E  B  C# A
    e-0--2--4--0------
    b-0--4--6--2------
    g-1--4--6--2------
    D-2--4--6--2------
    A-2--2--4--0------
    E-0--x--x--x------…
  • intro:
    e-|-------------------------------------------------------------------------
    B-|-------------------------------------------------------------------------
    G-|---------8-8-8-8-9-9-9-9--------------------------8-8-8-8-9-9-9-9--------
    D-|-9-9-9-9-8-8-8-8-9-9-9-9---8-9-8--8-8-9-8-9-9-9-9-8-8-8-8-9-9-9-9---8-9--
    A-|-9-9-9-9-6-6-6-6-7-7-7-7-9----------------9-9-9-9-6-6-6-6-7-7-7-7-9------
    E-|-7-7-7-7----------------------------------7-7-7-7------------------------
    
    e-|-------------------------------------------------------------------------
    B-|-------------------------------------------------------------------------
    G-|---------------------8-8-8-8-9-9-9-9--------------------------8-8-8-8----
    D-|-8--8-9-11-8-9-9-9-9-8-8-8-8-9-9-9-9---8-9-8--8-8-9-8-9-9-9-9-8-8-8-8----
    A-|-------------9-9-9-9-6-6-6-6-7-7-7-7-9----------------9-9-9-9-6-6-6-6----
    E-|-------------7-7-7-7----------------------------------7-7-7-7------------
    
    e-|--------------------------|
    B-|--------------------------|
    G-|-9-9-9-9------------------|
    D-|-9-9-9-9---8-9-8--8-8-9-8-|
    A-|-7-7-7-7-9----------------|
    E-|--------------------------|
    
    verse:
    e-|-------------------------------------------------------------------------
    B-|-------------------------------------------------------------------------
    G-|-9-x-x-x-----------------9-x-x-x-----------------9-x-x-x-----------------
    D-|-9-x-x-x---8-9-8-8-8-9-8-9-x-x-x---8-9-8-8-8-9-8-9-x-x-x---8-9-8-8-8-9-8-
    A-|-7-x-x-x-9---------------7-x-x-x-9---------------7-x-x-x-9---------------
    E-|-------------------------------------------------------------------------
    
    e-|-------------------------------------------------------------------------
    B-|-------------------------------------------------------------------------
    G-|-16-16-16-16-13-13-13-13-9-x-x-x-----------------9-x-x-x-----------------
    D-|-xx-xx-xx-xx-xx-xx-xx-xx-9-x-x-x---8-9-8-8-8-9-8-9-x-x-x---8-9-8-8-8-9-8-
    A-|-14-14-14-14-11-11-11-11-7-x-x-x-9---------------7-x-x-x-9---------------
    E-|-------------------------
    
    e-|-------------------------------------------------|
    B-|-------------------------------------------------|
    G-|-9-x-x-x-------------------------9-9-8-8-6-6-3-4-|
    D-|-9-x-x-x---8-9-8-8-8-9-8-9-9-9-9-x-x-x-x-x-x-x-x-|
    A-|-7-x-x-x-9---------------9-9-9-9-7-7-6-6-4-4-1-2-|
    E-|-------------------------7-7-7-7-----------------|
    
    pre-chorus:
    e-|-------------------------------------------------------------------------
    B-|-------------------------------------------------------------------------
    G-|-4-4-4-4-----------------8-8-8-8-9-9-9-9-4-4-4-4-------------8-8-6-6-3-4-
    D-|-x-x-x-x-4-4-4-4-6-6-6-6-8-8-8-8-9-9-9-9-4-4-4-4-4-x-x-x-x-x-x-x-x-x-x-x-
    A-|-2-2-2-2-4-4-4-4-6-6-6-6-6-6-6-6-7-7-7-7-2-2-2-2-4-x-x-x-x-x-6-6-4-4-1-2-
    E-|---------2-2-2-2-4-4-4-4-------------------------2-x-x-x-x-x-------------
    
    e-|-----------------------------------------------------------|
    B-|-----------------------------------------------------------|
    G-|-4-4-4-----------------8-8-8-8-9-9-9-9-4-4-4-4-------------|
    D-|-x-x-x-4-4-4-4-6-6-6-6-8-8-8-8-9-9-9-9-4-4-4-4-2-2-2-2-4-4-|
    A-|-2-2-2-4-4-4-4-6-6-6-6-6-6-6-6-7-7-7-7-2-2-2-2-2-2-2-2-4-4-|
    E-|-------2-2-2-2-4-4-4-4-------------------------0-0-0-0-2-2-|
    
    chorus:
    e-|-------------------------------------------------------------------------
    B-|-------------------------------------------------------------------------
    G-|---------8-8-8-8-9-9-9-9-9-9-9-9-4-4-4-4-3-3-3-3-4-4-4-6-4-4-4-4-6-6-6-6-
    D-|-9-9-9-9-8-8-8-8-9-9-9-9-9-9-9-9-x-x-x-x-x-x-x-x-x-x-x-x-x-x-x-x-x-x-x-x-
    A-|-9-9-9-9-6-6-6-6-7-7-7-7-7-7-7-7-2-2-2-2-1-1-1-1-2-2-2-4-2-2-2-2-4-4-4-4-
    E-|-7-7-7-7-----------------------------------------------------------------
    
    e-|---------------|
    B-|---------------|
    G-|-8-8-8-8-9-9-9-|
    D-|-x-x-x-x-x-x-x-|
    A-|-6-6-6-6-7-7-7-|
    E-|---------------|
    
    second…
  • e-|-----------------------------------------------------------------|
    B-|-----------------------------------------------------------------|
    G-|-----------------------------------------------------------------|
    D-|-9-9-9-9---------9-9-9-9---------9-9-9-9-------------------------|
    A-|-7-7-7-7-6-6-6-6-7-7-7-7-6-6-6-6-7-7-7-7-9-9-9-9-6-6-6-6-4-4-4-4-|
    E-|---------4-4-4-4---------4-4-4-4---------7-7-7-7-4-4-4-4-2-2-2-2-|
    
    e-|-----------------------------------------------------------------|
    B-|-----------------------------------------------------------------|
    G-|-----------------------------------------------------------------|
    D-|-9-9-9-9---------9-9-9-9---------9-9-9-9-------------------------|
    A-|-7-7-7-7-6-6-6-6-7-7-7-7-6-6-6-6-7-7-7-7-9-9-9-9-6-6-6-6-4-4-4-4-|
    E-|---------4-4-4-4---------4-4-4-4---------7-7-7-7-4-4-4-4-2-2-2-2-|
    
    e-|-----------------------------------------|
    B-|-----------------------------------------|
    G-|-----------------------------------------|
    D-|-----------------------------------------|
    A-|-2-2-2-2-4-4-4-4-9-8-6-4-2-2-2-2-2-2-2-4-|
    E-|-0-0-0-0-2-2-2-2-7-6-4-2-0-0-0-0-0-0-0-2-|
    
    e-|-----------------------------------------------------------------|
    B-|-----------------------------------------------------------------|
    G-|-----------------------------------------------------------------|
    D-|-4-4-4-4---------8-8-8-8-9-9-9-9-4-4-4-4---------8-8-8-8-9-9-9-9-|
    A-|-2-2-2-2-4-4-4-4-6-6-6-6-7-7-7-7-2-2-2-2-4-4-4-4-6-6-6-6-7-7-7-7-|
    E-|---------2-2-2-2-------------------------2-2-2-2-----------------|
    
    e-|-----------------------------------------------------------------|
    B-|-----------------------------------------------------------------|
    G-|-----------------------------------------------------------------|
    D-|-4-4-4-4---------8-8-8-8-9-9-9-9-4-4-4-4-6-6-6-6-8-8-8-8-9-9-9-9-|
    A-|-2-2-2-2-4-4-4-4-6-6-6-6-7-7-7-7-2-2-2-2-4-4-4-4-6-6-6-6-7-7-7-7-|
    E-|---------2-2-2-2-------------------------------------------------|
    
    e-|-----------------------------------------------------------------|
    B-|-----------------------------------------------------------------|
    G-|-----------------------------------------------------------------|
    D-|-9-9-9-9---------9-9-9-9---------9-9-9-9-------------------------|
    A-|-7-7-7-7-6-6-6-6-7-7-7-7-6-6-6-6-7-7-7-7-9-9-9-9-6-6-6-6-4-4-4-4-|
    E-|---------4-4-4-4---------4-4-4-4---------7-7-7-7-4-4-4-4-2-2-2-2-|
    
    e-|-----------------------------------------------------------------|
    B-|-----------------------------------------------------------------|
    G-|-----------------------------------------------------------------|
    D-|-9-9-9-9---------9-9-9-9---------9-9-9-9-------------------------|
    A-|-7-7-7-7-6-6-6-6-7-7-7-7-6-6-6-6-7-7-7-7-9-9-9-9-6-6-6-6-4-4-4-4-|
    E-|---------4-4-4-4---------4-4-4-4---------7-7-7-7-4-4-4-4-2-2-2-2-|
    
    e-|-----------------------------------------|
    B-|-----------------------------------------|
    G-|-----------------------------------------|
    D-|-----------------------------------------|
    A-|-2-2-2-2-4-4-4-4-9-8-6-4-2-2-2-2-2-2-2-4-|
    E-|-0-0-0-0-2-2-2-2-7-6-4-2-0-0-0-0-0-0-0-2-|
    
    e-|-----------------------------------------------------------------|
    B-|-----------------------------------------------------------------|
    G-|-----------------------------------------------------------------|
    D-|-4-4-4-4---------8-8-8-8-9-9-9-9-4-4-4-4---------8-8-8-8-9-9-9-9-|
    A-|-2-2-2-2-4-4-4-4-6-6-6-6-7-7-7-7-2-2-2-2-4-4-4-4-6-6-6-6-7-7-7-7-|
    E-|---------2-2-2-2-------------------------2-2-2-2-----------------|
    
    e-|-----------------------------------------------------------------|
    B-|-----------------------------------------------------------------|
    G-|-----------------------------------------------------------------|
    D-|-4-4-4-4---------8-8-8-8-9-9-9-9-4-4-4-4-6-6-6-6-8-8-8-8-9-9-9-9-|
    A-|-2-2-2-2-4-4-4-4-6-6-6-6-7-7-7-7-2-2-2-2-4-4-4-4-6-6-6-6-7-7-7-7-|
    E-|---------2-2-2-2-------------------------------------------------|
    
    e-|-------------------------------------------------------------------------|
    B-|-------------------------------------------------------------------------|
    G-|-------------------------------------------------------------------------|
    D-|-13-13-13-13-12-12-12-12-13-13-13-13-12-12-12-12-13-13-13-13-11-11-11-11-|
    A-|-11-11-11-11-10-10-10-10-11-11-11-11-10-10-10-10-11-11-11-11--9--9--9--9-|
    E-|-------------------------------------------------------------------------|
    
    e-|-------------------------------------------|
    B-|-------------------------------------------|
    G-|-------------------------------------------|
    D-|-8-8-8-8-8-8-8-8-6-6-6-6-8-8-8-8-9-9-9-9---|
    A-|-6-6-6-6-6-6-6-6-4-4-4-4-6-6-6-6-7-7-7-7-6-|
    E-|-----------------------------------------4-|
    
    e-|-------------------------------------------------------------------------|
    B-|-------------------------------------------------------------------------|
    G-|-------------------------------------------------------------------------|
    D-|-9-9-9-9---------9-9-9-9---------9-9-9-9---------------------------------|
    A-|-7-7-7-7-6-6-6-6-7-7-7-7-6-6-6-6-7-7-7-7-9-9-9-9-6-6-6-6-4-4-4-4-2-2-2-2-|
    E-|---------4-4-4-4---------4-4-4-4---------7-7-7-7-4-4-4-4-2-2-2-2-0-0-0-0-|
    
    e-|---------------------------------|
    B-|---------------------------------|
    G-|---------------------------------|
    D-|---------------------------------|
    A-|-4-4-4-4-9-8-6-4-2-2-2-2-2-2-2-4-|
    E-|-2-2-2-2-7-6-4-2-0-0-0-0-0-0-0-2-|
    
    e-|-----------------------------------------------------------------|
    B-|-----------------------------------------------------------------|
    G-|-----------------------------------------------------------------|
    D-|-4-4-4-4---------8-8-8-8-9-9-9-9-4-4-4-4---------8-8-8-8-9-9-9-9-|
    A-|-2-2-2-2-4-4-4-4-6-6-6-6-7-7-7-7-2-2-2-2-4-4-4-4-6-6-6-6-7-7-7-7-|
    E-|---------2-2-2-2-------------------------2-2-2-2-----------------|
    
    e-|-------------------------------------------------------------------|
    B-|-------------------------------------------------------------------|
    G-|-------------------------------------------------------------------|
    D-|-4-4-4-4---------8-8-8-8-9-9-9-9-4-4-4-4-6-6-6-6-8-8-8-8-9-9-9-9---|
    A-|-2-2-2-2-4-4-4-4-6-6-6-6-7-7-7-7-2-2-2-2-4-4-4-4-6-6-6-6-7-7-7-7-9-|
    E-|---------2-2-2-2-------------------------------------------------7-|…
  • Riff 1 X1
    G--------------------
    D--------------------
    A-3*-------1*-3*-----
    E----1*-4*-----------
    
    Riff 2 X2
    G------------------
    D------------------
    A-3*-0*----1*-3*---
    E-------4*---------
    
    Riff 3
    G---------------------
    D---------------------
    A-------3*------------
    E-1*-3*----0*--1%-3*--
    
    Riff…
  • Tune down (1/2) step
    
    G------------------------------------------------
    D--7---------7-----7-----10------10---10---------
    A-----7--------7-----------10-----10-------------
    E--------5-------5------------8-----8------------
    
    G------------------------------------------------
    D--11-------11----11------9-------9-----9--------
    A-----11------11------------9-------9------------
    E--------9-------9------------7-------7----------
    
    G------------------------------------------------
    D--7---------7-----7-----10------10---10---------
    A-----7--------7-----------10-----10-------------
    E--------5-------5------------8-----8------------
    
    G------------------------------------------------
    D--11-------11----11------9-------9-----9--------
    A-----11------11------------9-------9------------
    E--------9-------9------------7-------7----------
    
    G------------------------------------------------
    D--7---------7-----7-----10------10---10---------
    A-----7--------7-----------10-----10-------------
    E--------5-------5------------8-----8------------
    
    G------------------------------------------------
    D--11-------11----11------4-------4-----4--------
    A-----11------11------------4-------4------------
    E--------9-------9------------2-------2----------
    
    G------------------------------------------------
    D---2------2------2-------4-------4-----4----2---
    A-----2------2--------------4-------4------------
    E-------0------0--------------2-------2----------…
  • Intro: (guitar 1)
    e|----------------------------------------|
    B|----------------------------------------|
    G|--9-------4-----------------------------|
    D|--9---4---4---6------repeat 4 times-----|
    A|--7---4---2---6-------------------------|
    E|------2-------4-------------------------|
    
    Intro:…
  • Chords:
        A    B    D    E    F#
    e|--------------------------------------------------------------------|
    B|--------------------------------------------------------------------|
    G|------------7----9--------------------------------------------------|
    D|--7----9----7----9----4---------------------------------------------|
    A|--7----9----5----7----4---------------------------------------------|
    E|--5----7--------------2---------------------------------------------|
    
    Solo:
    e|--------------------------------------------------------------------|
    B|--------0--2--0-----3--2--0--3--2--0--2--0------2-2-2-2-3-3-2-------|
    G|-----2-----------2--------------------------2---2-2-2-2-2-2-2-------|
    D|--2---------------------------------------------2-2-2-2-2-2-2-------|
    A|--------------------------------------------------------------------|
    E|--------------------------------------------------------------------|
    
    e|-------------------2-2-2-2-3-3-2-2----------------------------------|
    B|--4-4-4-4-5-5-4-4--3-3-3-3-3-3-3-3----------------------------------|
    G|--4-4-4-4-4-4-4-4--2-2-2-2-2-2-2-2-------------------7-----4--------|
    D|--4-4-4-4-4-4-4-4-------------------2-2-2-2-7-7-7-7--7--4--4--2--7--|
    A|------------------------------------2-2-2-2-7-7-7-7--5--4--2--2--7--|
    E|------------------------------------0-0-0-0-5-5-5-5-----2-----0--5--|
    
    Verses…
  • INTROx4
    G]-------------] [----] [---------------]
    D]-------------] [----] [---------------]
    A]-6>----2>----] [-6>-] [-6>-----4>-----]
    E]----6>----2>-] [----] [----6-7----2-1-]
    
    VERSEx4
    G]-------------------------------------------]
    A]-----------------------6---------8---------]
    A]-6-4-6-6-6-6-9-6-6-6-6---6-6-6-6---6-6-6-6-]
    E]-------------------------------------------]
    
    PART…
  • Intro: (Acoustic)
    e|--------------------|
    b|-1-0-1-------3-1-0--|
    g|-2-2-2-------2-2-2--|
    d|-2-2-2-------2-2-2--|
    a|-0-0-0-------0-0-0--|x3
    e|--------------------|
    
    Verse:
    C5             B/C            Am
    maybe it's not…
  • -----------------------------------------
    -----------------------------------------
    -----------------------------------------
    ----------0--2----1---0------------------
    --0--2--3------3----2---3----------------
    -----------------------------------------
    
    
    
    -----------------------------------------
    -----------------------------------------
    -----------------2--1--------------------
    ----------0--2---------------------------
    --0--2--3--------------------------------
    -----------------------------------------
    
    
    
    -----------------------------------------
    -----------------------------------------
    -----------------------------------------
    ----------0--2----1---0------------------
    --0--2--3------3----2---3----------------
    -----------------------------------------
    
    
    
    -----------------------------------------
    -----------------------------------------
    --2--1--0-----------2------------------------
    -----------4--3---2-------------------------
    -----------------------------------------
    -----------------------------------------
    
    -----------------------------------------
    -----------------------------------------
    -----------------------------------------
    ----------0--2----1---0------------------
    --0--2--3------3----2---3----------------
    -----------------------------------------
    
    -----------------------------------------
    -----------------------------------------
    -----------------2--1--------------------
    ----------0--2---------------------------
    --0--2--3--------------------------------
    -----------------------------------------
    
    -----------------------------------------
    -----------------------------------------
    -----------------------------------------
    ----------0--2----1---0------------------
    --0--2--3------3----2---3----------------
    -----------------------------------------
    
    Then…
  • INTRO
    G]-----------------------------------------------------]
    D]---0-2-4-------------0-2-4-----4-5-----2-4---0-2-4---]
    A]---------0-5-5-4-0---------5-5-----0-0---------------]
    E]-3-----------------3-----------------------3-------0-]
    
    VERSE
    G]---------------------------------------------------------------]
    D]------------------------------------------------0-2--------2---]
    A]-2-2-4-4-5-5>-2>-0>-2-2-4-4-5-5>-2>-0>-------0>-----5>-2-2---5-]
    E]---------------------------------------2>-3>-------------------]
    
    PRE-CHORUS
    G]-----------------|-------------]
    D]-----------------|-------------]
    A]----------2>-----|-5>----------]
    E]-3>-5>-0>----3-5-|----2>-3>-5>-]
    
    CHORUS
    G]-----------------]
    D]-----------------]
    A]-5>----2>--------]
    E]----2>----3>-5-5-]
    
    VERSE
    PRE-CHORUS(to…
  • INTRO
    G]---------------]
    D]-7-6-----------]
    A]-----7-6-4-----]
    E]-----------5-7-]
    
    VERSE
    G]-----------------------------------------------------------------]
    D]-7-6---------------7-6---------------7-6-------------------------]
    A]-----7-6-4-------------7-6-4--------------7-6-4-3-3-2-2----------]
    E]-----------5-5-7-7-----------5-5-7-7---------------------5-5-7-7-]
    
    BRIDGE…
  • Normal (E,A,D,G) Tuning.
    
    
    Intro: (#I remember well, holding him down...)
    
    G|-------------------|
    D|-------------------|
    A|-2>------2>--------|
    E|----5-3>----3>-5/0-|
    
    Verse 1: (#Pounding the mold, fore the unsized beast...)
    
    G|-------------|…
  • INTRO:
    e|--------------------------------------------------------------------|
    B|-----4------4-------4-----4--------4-------4-------3----1-3---------|
    G|--------------------------------------------------------------------|
    D|--------------------------------------------------------------------|
    A|-2-------2-----2----------------------------------------------------|
    E|-----------------4-----4----4--3-------3------3-2-------------------|
    
    e|--------------------------------------------------------------------|
    B|-----4------4-------4-----4--------4-------4------------------------|
    G|--------------------------------------------------------------------|
    D|--------------------------------------------------------------------|
    A|-2------2-2----2---------------------------------5--5-5-------------|
    E|-----------------4-----4-4---4--3-------3------3-2--2-2-------------|…
  • INTRO
    G]---------------------------------------------]
    D]-------------------------7-6-4-7-7-7-7-6-4-2-]
    A]-7-7-7-7-7-7-4-4-4-2-2-2-5-4-2-5-5-5-5-4-2-0-]
    E]-5-4-5-4-5-4-2-2-2-0-0-0---------------------]
    
    VERSE1
    G]----------------------------------------------------------]
    D]------------------------------6-7-------------------------]
    A]----2>-4-5>-------2>-4-5>-7-7-----7-712-------2>-4-5>-7>-]
    E]-2>---------5>-2>------------------------5>-2>------------]
    
    CHORUSx4…
  • INTRO
    G]---------------------------------------------]
    D]-------------------------------------------9-]
    A]----4-4-5>----4-4-5>-----4-4-5>-----4-4-5>-9-]
    E]-5-5-------5-5-------5-5--------5-5--------7-]
    
    VERSEx4
    G]-----------]
    D]-----------]
    A]----4-4-5>-]
    E]-5-5-------]
    
    PRE-CHORUS
    G]--------------------------]
    D]--------------7-6---------]
    A]-----5---7--------9-7-9-7-]
    E]-5------------------------]
    
    CHORUS
    G]----------------------------------------]
    D]----------------------------------------]
    A]----4-5-5------4-5-5------4-5-5------7>-]
    E]-5>-------4-5>-------4-5>-------4-5>----]
    
    VERSE
    PRE-CHORUS
    CHORUS
    
    BRIDGE
    G]---------------------------]
    D]---------------------------]
    A]----5>---------------5>-7>-]
    E]-7>----7>-5-5-2-2-7>-------]
    
    VERSE
    PRE-CHORUS
    CHORUS…
  • INTRO
    
    G-----------------------------        G------------------------------
    D-----------------------------        D------------------------------ 
    A-5-5-4--3-3-2--1-1-0-----5---        A-5-5-7--8-8-9--10-10-11--12--5
    E----------------------3------5…
  • Intro
    
    G:-----------
    D:-420-------
    A:-----22-00-
    E:-----------
    
    Verse (Riff 1)
    
    G:---------------------------------------------------------------
    D:---------------------------------------------------------------
    A:------------------0*-------------------------------------------
    E:-3*------------------------------------------------------------
    
    G:---------------------------------------------------------------
    D:---------------------------------------------------------------
    A:--------------0*-----------------------------------------------
    E:-3*------------------------------------------------------------
    
    G:---------------------------------------------------------------
    D:---------------------------------------------------------------
    A:-----------------0*--------------------------------------------
    E:-3*------------------------------------------------------------
    
    G:---------------------------------------------------------------
    D:---0*----------------------------------------------------------
    A:---------------------2*----------------------------------------
    E:---------------------------------------------------------------
    
    Verse…
  • Intro:
     --------14--------------12------------------14--------------17------
     ----14----14--------14------14----------14----14--------14----14----
     12----------12--15--------------15--12----------12--15----------15--
     --------------------------------------------------------------------…
  • e-|--------------------------------------------------------------------------------------------|
    B-|--------------------------------------------------------------------------------------------|
    G-|--6666-9-8-6-666-9-8-6------9-8-------9-4-6------9-8-------9-8-7-6-666-9-8-6-666-9-8-7-6----|
    D-|--6666-9-8-6-666-9-8-6-7777-9-8-7-777-9-4-6-6666-9-8-6-666-9-8-7-6-666-9-8-6-666-9-8-7-6----|
    A-|--4444-7-6-4-444-7-6-4-7777-7-6-7-777-7-6-4-6666-7-6-6-666-7-6-5-4-444-7-6-4-444-7-6-5-4----|
    E-|-----------------------5555-----5-555-------4444-----4-444----------------------------------|
    
    e-|-------4------------------4------------------4-5-4-----------------------------|
    B-|---------5------------------5----------------------5-4-------------------------|
    G-|-----6-----6---6--------6-----6---6--------6-----------6-4-------------(6)-----|
    D-|---6---------6--------6---------6--------6------------------6-4--------(6)-----|
    A-|-4------------------0------------------4------------------------7-6----(4)-----|
    E-|-------------------------------------------------------------------------------|
    
    e-|---------------------|
    B-|---------------------|
    G-|---6-----6-----6-----|
    D-|-----6-----6---------|x8
    A-|-4-----4-----4-------|
    E-|---------------------|
    
    e-|----------------------------------------------|
    B-|----------------------------------------------|
    G-|-999-8-88-7-777-6-666-99-8-88-9-8-6-66--------|
    D-|-999-8-88-7-777-6-666-99-8-88-9-8-6-66--------|
    A-|-777-6-66-5-555-4-444-77-6-66-7-6-4-44--------|
    E-|----------------------------------------------|
    
    e-|----------------------------------------------|
    B-|----------------------------------------------|
    G-|-999-8-88-7-777-6-666-99-8-88-44-5-6----------|
    D-|-999-8-88-7-777-6-666-99-8-88-44-5-6----------|
    A-|-777-6-66-5-555-4-444-77-6-66-22-3-4----------|
    E-|----------------------------------------------|
    
    e-|---------------------|
    B-|---------------------|
    G-|---6-----6-----6-----|
    D-|-----6-----6---------|x8
    A-|-4-----4-----4-------|
    E-|---------------------|
    
    e-|----------------------------------------------|
    B-|----------------------------------------------|
    G-|-999-8-88-7-777-6-666-99-8-88-9-8-6-66--------|
    D-|-999-8-88-7-777-6-666-99-8-88-9-8-6-66--------|
    A-|-777-6-66-5-555-4-444-77-6-66-7-6-4-44--------|
    E-|----------------------------------------------|
    
    e-|----------------------------------------------|
    B-|----------------------------------------------|
    G-|-999-8-88-7-777-6-666-99-8-88-44-5------------|
    D-|-999-8-88-7-777-6-666-99-8-88-44-5------------|
    A-|-777-6-66-5-555-4-444-77-6-66-22-3------------|
    E-|----------------------------------------------|
    
    e-|------------------------------------------------|
    B-|------------------------------------------------|
    G-|-6-66-6-689-99-9-91113-1313-13-111314-14-141310-|
    D-|-6-66-6-689-99-9-91113-1313-13-111314-14-141310-|x2
    A-|-4-44-4-467-77-7-79-11-1111-11-9-1112-12-12119--|
    E-|------------------------------------------------|
    
    SOLO:
    e-|--------------------------------------------------->
    B-|-------5h7p5-8b-----7/9--9-9-9-10-9-9-12-9-9-10-9-->
    G-|-6------------------------------------------------->
    D-|--------------------------------------------------->
    A-|--------------------------------------------------->
    E-|--------------------------------------------------->
    
    e-|-12p11----12--------------------------------------->
    B-|-------14----14-12-14-12----12--------12b------12b->
    G-|-------------------------14----14-13--------------->
    D-|--------------------------------------------------->
    A-|--------------------------------------------------->
    E-|--------------------------------------------------->
    
    e-|----------------------->
    B-|-10h12-10h12-10h12--9-->
    G-|----------------------->
    D-|----------------------->
    A-|----------------------->
    E-|----------------------->
    
    e-|------------------------------------------------------------|
    B-|-12p10----10--------------------------------------------10-|
    G-|-------13----13-11-13-----11--------------------------------|
    D-|-----------------------14----14-13-14-13-11-13-11----11-----|
    A-|--------------------------------------------------14--------|
    E-|------------------------------------------------------------|
    
    e-|----------------------------------------------|
    B-|----------------------------------------------|
    G-|-999-8-88-7-777-6-666-99-8-88-9-8-6-66--------|
    D-|-999-8-88-7-777-6-666-99-8-88-9-8-6-66--------|
    A-|-777-6-66-5-555-4-444-77-6-66-7-6-4-44--------|
    E-|----------------------------------------------|
    
    e-|----------------------------------------------|
    B-|----------------------------------------------|
    G-|-999-8-88-7-777-6-666-99-8-88-44-5-6----------|
    D-|-999-8-88-7-777-6-666-99-8-88-44-5-6----------|
    A-|-777-6-66-5-555-4-444-77-6-66-22-3-4----------|
    E-|----------------------------------------------|
    
    e-|---------------------|
    B-|---------------------|
    G-|---6-----6-----6-----|
    D-|-----6-----6---------|x8
    A-|-4-----4-----4-------|
    E-|---------------------|
    
    e-|---------------------------------------------------------------------------------------------------------|
    B-|---------------------------------------------------------------------------------------------------------|
    G-|-(6)-----------------------(6)-----------------------(6)-----------------------(6)----------(4)pick…
  • Riff A: (once)
    A--7---------------------------------------
    E----00000000-00000000-3-3-3333--2-2-2222--
    
    Riff B: (once)
    A--7-7-5-7-7-5-7-7-5-7-7----------------------
    E-------------------------3-3-3333--2-2-2222--
    
    Riff A:…
  • VERSE
    G]-------------------------------------------------------------------]
    D]-------------------------------------------------------------------]
    A]----------------4-4-4-5>--------------------------4-4-4-5>----5>---]
    E]-5>-0>-2>-5-5-5----------5>-0>-0-4-5>-0>-2>-5-5-5----------5>----0-]
    
    CHORUS
    G]-------------]
    D]-------------]
    A]----5>-------]
    E]-2>----5>-0>-]
    
    BRIDGE
    G]---------------------------------------------------------------------
    D]---------------------------------------------------------------------
    A]-------------11-11-12-12-------------12-12-14-14---------11-11-12-12-
    E]-10-10-10-10-------------12-12-12-12-------------9-9-9-9-------------
    
    ----------------------------------------------------]
    ----------------------------------------------------]
    -------------11-11-12-12-------------11-11-12-12----]
    -10-10-10-10-------------10-10-10-10-------------12-]
    
    1/2…
  • G:---------------------------------------------------------------
    D:---------------------------------------------------------------
    A:----2(8x)---------5(8x)------------------------------------
    E:------------2(8x)---------5(8x)-3(8x)-5(8x)-2(6x)--
    
    
    G:---------------------------------------------------------------
    D:-----------------------------------5(8x)---------------------
    A:--2(8x)-5(8x)-7(8x)…
  • INTRO
    G]------------------------------------]
    D]-14-5-10-----------14-5-10----------]
    A]-12-7-8--3-5-7-5-3-12-7-8--3>-5>-7>-]
    E]------------------------------------]
    PLAY INTRO AGAIN BUT STRUM ALL THE NOTES
    
    PART A
    G]--------------------------------]
    D]--------------------7-----------]
    A]-8>-5>-7>-8>-5>---7----8>-5>-7>-]
    E]----------------5---------------]
    
    VERSE
    G]----------------------------------------------------------------
    D]----------------------------------------------------------------
    A]----8-8-7-8-8-----------5-5-5-3-2-----------8-8-7-8-8---------5-
    E]-5>-----------8-8-7-8-8-----------5-5-3-5-5-----------8-8-7-8---
    
    ---------------------------------------------------------------------
    ---------------------------------------------------------------------
    -----------8-8-7-8-8-----------5-5-3-2-----------8-8-7-8-8-----------
    -5-5-3-5-5-----------8-8-7-8-8---------5-5-3-5-5-----------8-8-7-8-8-
    
    --------------]
    --------------]
    -5-5-5-5-8-10-]
    --------------]
    
    CHORUS
    G]-----------------------------------------------2-0---0---------------------
    D]---------7---------7-----------------3-3-3-2-0-----2---2-0---2-0-----0-----
    A]-8---7-8---10-8-10---------------3-5-----------------------3-----3-2---3-2-
    E]---8-----------------5-3-5-8-5-3-------------------------------------------
    
    SOLO…
  • Intro:(listen to the CD for rhythym on this part)
    E---------------------------------------|
    B---------------------------------------|
    G-----------5---5-----------3---5-------|
    D---3---3---5---5---7---7---3---5---3---|
    A---3---3---3---3---7---7---1---3---3---|
    E---1---1-----------5---5-----------1---|…
  • INTRO
    G]-------------]
    D]-------------]
    A]-3>-5>-7>-8>-]
    E]-------------]
    
    VERSEx3
    G]-------------]
    D]-------------]
    A]-3>----------]
    E]----3>-0>-1>-]
    
    PRE-CHORUS
    G]----------------]
    D]----------------]
    A]-3>-5>-7>-8>-10-]
    E]----------------]
    
    CHORUSx2
    G]---------------]
    D]---------------]
    A]-3>-13>-8>-10>-]
    E]---------------]
    
    VERSEx3
    PRE-CHORUS
    CHORUS(with…
  • Intro/outro
    G|----------------------------------------------------------|
    D|----12------12-12----10------10-109---8-----8-8----------|
    A|----------------------------------------------------------|
    D|-12------12-------10------10---------8-----8------6---/18-|
    
    riff…
  • Intro
    e]---------------------------------------------------------
    b]---------------------------------------------------------
    g]444555566667776666666666--444555566664444666688899-------
    d]xxxxxxxxxxxxxxxxxxxxxxxx--xxxxxxxxxxxxxxxxxxxxxxxx-------
    a]222333344445554444444222--222333344442222444466677-222222
    e]---------------------------------------------------000000…
  • Intro:
    g]---------
    d]---0-2-4-
    a]-0-------
    e]---------
      part A
    g]------------------------------------------------------
    d]------------------------------------------------------
    a]-3-3-3-3-3-3-2-2-2-2-2-2-------------5-5-5-5-5-10-10--
    e]-------------------------0-0-0-0-0-0------------------
    
    g]------------------------------------------------------
    d]-------------------------------14-14-14-14-14-14-12-12
    a]-10-10-10-10-14-14-14-18-17-18------------------------
    e]------------------------------------------------------
    
    g]------------------------------------------------------
    d]12-12-12-12-------------------------------------------
    a]------------3-3-3-3-3-3-2-2-2-2-2-2-------------5-5-5-
    e]------------------------------------3-3-3-3-3-3-------
    
    g]-------------------------------
    d]-------------------------------
    a]-5-5-5-3-3-3-3-3-3-2-2-2-2-2-2-
    e]-------------------------------…
  • Intro/ref
    
     -9---9---9---9---9---9---9---9----------------------------------
     ----------------------------------------------------------------
     ---------------------------------7---7---7---7---7---7---7---7--
     ----------------------------------------------------------------…
  • INTRO
    G:---------------------------------------------------------------
    D:---------------------------------------------------------------
    A:----5------2--------------------------------------------
    E:-------5------3---5----------------------------------------
    
    VERSE
    G:---------------------------------------------------------------
    D:---------------------------------------------------------------
    A:---5>------2>--2>----------------------------------------------
    E:-------5>----------3>---5>-------------------------------------
    
    AFtER…
  • INTROx2
    G]----------------------------------------------------]
    D]----------------------------------------------------]
    A]-7-7-7/---------7-7-7/--------7-7-7/----------------]
    E]--------0-0-0-0--------0-0-0-0-------0>-5-5-9-9-7-7-]
    
    VERSEx2
    G]-------------------------------]
    D]-------------------------------]
    A]-7>----7>----7>----7>----------]
    E]----7>----5>----7>----5>-9>-7>-]
    
    CHORUS
    G]--------------------------]
    D]--------------------------]
    A]-------0>-2>-------0----2-]
    E]-0>-2>-------0>-2>--------]
    
    INTRO
    VERSE
    
    BRIDGE…
  • Chords used:
    E------------------------------------------------|
    B------------------------------------------------|
    G---9---11------------------------3----6----8----|
    D---9---11----9----6----2----4----3----6----8----|
    A---7----9----9----6----2----4----1----4----6----|
    E-------------7----4----0----2-------------------|…
  • Intro:(four times)
    When the guitar has faded in 
    
    G:--------7------------------------------------------------------
    D:---7-10---10-9-----7-7-7--10-10-10-----------------------------
    A:-8-------------10----------------------------------------------
    E:---------------------------------------------------------------
    
    
    
    Main…
  • Chords:
        Db   Ab   F#   
    e --4----4----2---
    B --6----4----2---
    G --6----5----3---
    D --6----6----4---
    A --4----6----4---
    E -------4----2---
    
        F#5  Db5  Ab5
    e ----------------
    B ----------------
    G -------6--------
    D…
  • Riff A: (once)
    A----2-2-2-2---2-2-2-2---2-2-2-2---2-2-2-2---
    E--2---------2---------2---------2---------2-
    
    Riff B: (once)
    A--22222222-11111111-------------------------6--4--------
    E---------------------44444444--22222222--4--------2--0--
    
    Riff…
  • e|---------------------------------------------|
    B|---------------------------------------------|
    G|---------------------------------------------|
    D|-7~----7~----7/2--------7~-------------------|
    A|---------------------0------7~---------------|
    E|---------------------------------------------|
    
    e|---------------------------------------------|
    B|---------------------------------------------|
    G|-------6666-------6666-------6666-------9999-|
    D|-7777~-6666-7777~-6666-7777~-6666-7777~-9999-|
    A|-7777~-4444-7777~-4444-7777~-4444-7777~-7777-|
    E|-5555~------5555~------5555~------5555~------|
    
    Verse…
  • Intro:
    Guitar1:
    e|--------------------------------------------------------------------------|
    B|--------------------------------------------------------------------------|
    G|--------------------------------------------------------------------------|
    D|-66-22-44-66-22-44-66-22-44-2~-1~-----------------------------------------|
    A|-66-22-44-66-22-44-66-22-44-2~-1~-----------------------------------------|
    E|-44-00-22-44-00-22-44-00-22-0~-x~-----------------------------------------|
    
    Guitar2:
    e|--------------------------------------------------------------------------|
    B|--------------------------------------------------------------------------|
    G|--------------------------------------------------------------------------|
    D|-66-22-44-66-22-44-66-22-44-2~-1~-----------------------------------------|
    A|-66-22-44-66-22-44-66-22-44-2~-1~-----------------------------------------|
    E|-44-00-22-44-00-22-44-00-22-0~-x~-----------------------------------------|
    
    Guitar1:
    e|--------------------------------------------------------------------------|
    B|--------------------------------------------------------------------------|
    G|--------------------------------------------------------------------------|
    D|-66-22-44-66-22-44-66-22-44-2~-1~-----------------------------------------|
    A|-66-22-44-66-22-44-66-22-44-2~-1~-----------------------------------------|
    E|-44-00-22-44-00-22-44-00-22-0~-x~-----------------------------------------|
    
    Guitar2:
    e|--------------------------------------------------------------------------|
    B|--------------------------------------------------------------------------|
    G|----------------------------6---------------------------------------------|
    D|-6~-6-8-9-8-4-6-1-6-8-9-8-4---6-6-9-8-6-4-2~-1~---------------------------|
    A|--------------------------------------------------------------------------|
    E|--------------------------------------------------------------------------|
    
    
    Verse:
    Guitar1:…
  • Main Riff (part 1)
    e|----------------|
    b|----------------|
    g|----------------|
    d|----------------|
    a|----6-----4---7-|
    E|--7----7--------|
     
    Main Riff (part 2)
    e|-------------------|
    b|-------------------|
    g|-------------------|
    d|-------------------|
    a|----1----4-2-1-2---|
    E|--2---2------------|…
  • Intro
    G:---------------------------------------------------------------
    D:---------------------------------------------------------------
    A:-2222-2-2222-2-2222-2-2222-------------------------------------
    E:---------------------------------------------------------------
    
    Verse…
  • Normal (E,A,D,G) Tuning.
    
    
    Intro
    
    G|---------------|  |-----------|
    D|-5h7-------5-5-|  |-5h7----4>-|
    A|-----2-2-2-----|x3|-----5>----|
    E|---------------|  |-----------|
    
    
    Verse
    
    G|-------------|
    D|----5>-------|
    A|-2>----5>-0>-|x4
    E|-------------|
    
    
    Chorus
    
    G|-------------|…
  • INTRO VERSE x2
    G]--------------------------------------]
    D]--------------------------------------]
    A]-2-2-9-9-7-7-5-5-------5-5-9-9-7-7-5>-]
    E]-----------------3>-5>----------------]
    
    VERSE 
    G]-----------------------------------]
    D]-----------------------------------]
    A]-5>-2>-------5>-2>-------5-4-7-4-5-]
    E]-------3>-5>-------3>-5>-----------]
    
    INTRO…
  • INTROx17
    g]---------9-]
    d]---6-7-9---]
    a]-7---------]
    e]-----------]
    
    PART A
    g]-----------------------]
    d]----11-9-8----9-8------]
    a]-----------11-----11-9-]
    e]-9>--------------------]
    
    VERSE (same as intro)
    
    PRE-CHORUS
    g]-----------------]
    d]-11>-------------]
    a]------9--12---14-]
    e]-----------------]
    
    g]------------------------------------------------------]
    d]------------------------------------------------------]
    a]-7>----------7>----------7>----------7>-6-4>----------]
    e]----7>-5>-7>----7>-5>-7>----7>-5>-7>---------7-5>-4-7-]
    
    VERSE
    PART…
  • INTRO
    G]-------------------------------------]
    D]-------------------------------------]
    A]-5>-2>----3>-5>-2>-----------5-4-7-5-]
    E]-------5>----------5>-3>-3-3---------]
    
    VERSEx2
    G]--------------------------------------]
    D]--------------------------------------]
    A]-5>----2>----5>-7-7-7-9-9-9-7-7-7-10>-]
    E]----5>----3>--------------------------]
    
    CHORUSx2
    G]-------------|-------------------]
    D]-------------|-------------------]
    A]-------5>-2>-|-------5>----------]
    E]-3>-5>-------|-3>-5>----2>-3--5--]
    
    VERSE
    CHORUS
    
    SOLO
    G]-------------------------]
    D]-------------------------]
    A]----5>-------5>----------]
    E]-3>----5>-3>----7>-5>-3>-]
    
    LAST…
Наверх