Аккорды «Leftover Crack»

Leftover Crack
Leftover Crack — американская крэк рокстеди группа, сформированная в 1999 г. после распада Choking Victim. Стиль творчества этого коллектива представляет собой смесь таких жанров музыки, как ска, краст-панк и блэк-метал. Тематика песен является антиправительственной, антирелигиозной и антиполицейской, из-за чего у группы много проблем с выступлениями на территории различных городов США и в других странах. В данное время заключён контракт с музыкальным лейблом Fat Wreck Chords, выпускающим компакт-диски… Читать полностью... Leftover Crack — американская крэк рокстеди группа, сформированная в 1999 г. после распада Choking Victim. Стиль творчества этого коллектива представляет собой смесь таких жанров музыки, как ска, краст-панк и блэк-метал. Тематика песен является антиправительственной, антирелигиозной и антиполицейской, из-за чего у группы много проблем с выступлениями на территории различных городов США и в других странах. В данное время заключён контракт с музыкальным лейблом Fat Wreck Chords, выпускающим компакт-диски с записями Lefover Crack, и с лейблом Alternative Tentacles, выпускающим виниловые пластинки. Состав группы: Стизза Крэк, также известный как Скотт Старжион (вокал, гитара), Изра Кир (гитара, вокал), Брэд Логан (гитара), Алек Бэйллий (бас гитара), Эра Бабаджьян (ударные). Группа имеет тесные связи с Morning Glory и INDK. Состав Leftover Crack меняется довольно часто, привлекая участников других панк групп из Нью-Йорка: The Stockyard Stoics и The X-Possibles. Стизза, Брэд, Изра и Алек являются единственными постоянными участниками группы. Место жительства Leftover Crack — сквот C-Squat, расположенный в доме 155 на Авеню Си в Манхеттене. Название группы (дословный перевод — «Оставшийся крэк») является оксюмороном, придуманным Стиззой и основанным на мысли о том, что люди, энергично употребляющие крэк, вряд ли оставят для себя часть наркотика «на потом». Скрыть...
Популярные аккорды Leftover Crack:
алфавиту | просмотрам | случайно
  • Intro
    E-----------------------|
    B-----------------------|
    G-----------------------|        repeat a lot
    D-----7-10-8888---------|
    A-----7-10-8888---------|
    E-----5-8--6666---------|
    
    then
    
    
    verse
    E-------------------------------|
    B-------------------------------|
    G-------------------------------|
    D-----10-10-10-999-888-777------|…
  • > = play note 8x
    
    
    part 1
    G:------------------------------------------------------
    D:------------------------------------------------------
    A:------------------------------------------------------ x4
    E:-3-6-6--3-6--3-3-6-6--3-6-----------------------------
    
    G:------------------------------------------------------
    D:------------------------------------------------------
    A:------------------------------------------------------…
  • intro
    G|---------------------------------
    B ---------------------------------
    A|---5---------------------5/6-----
    E|------5--7--2--3/4--5/6----------
    
    
    punk verse                                lead into ska
    G|--------------------------------------I-----------------------------------
    D|--------------------------------------I-----------------------------------
    A|---5>---------------------5>--1-1-2-2-I----5>---12-10-9-7-----------------
    E|------5>--7>--2>--3>--5>--------------I-5>--------------------------------
    
    
    ska…
  • Tuning: E A D G B E
    
    
    Intro 
    e|---------------------------------------------------------------------------|
    B|---------------------------------------------------------------------------|
    G|------------4--------------------------------------------------------------|
    D|-7----------4----------4----------2---x2---2-------------------------------|
    A|-7----------2----------4----------2--------2-------------------------------|
    E|-5---------------------2----------0--------0-------------------------------|
    
    
    Intro…
  • Intro:
    
    guitar plays by itself once then the bass comes in with this
    G-------------------------------------------------------------------
    D-------------------------------------------------------------------
    A-6-6-6-6-6-6-6-6---------------------------------------------------
    E------------------6-6-6-6-6-6-6-6--8-8-8-8-8-8-8-8--6-6-6-6-6-6-6-6
    
    then…
Наверх