Аккорды «Lenny Kravitz»

Lenny Kravitz
Ленни Кравиц (англ. - Leonard Albert Kravitz; род. 26 мая 1964 г., Нью-Йорк, США ) - американский певец, автор песен, мультиинструменталист и продюсер. Его «ретро»-стиль соединяет вместе элементы таких музыкальных направлений, как рок, соул, фанк, регги, хард-рок, психоделия, фолк и баллады. Четыре года подряд (с 1999 по 2002) становился обладателем премии 'Грэмми' в номинации «Лучшее мужское рок-выступление» («Best Male Rock Vocal Performance»). Суммарный тираж его записей превышает 30 миллионов… Читать полностью... Ленни Кравиц (англ. - Leonard Albert Kravitz; род. 26 мая 1964 г., Нью-Йорк, США ) - американский певец, автор песен, мультиинструменталист и продюсер. Его «ретро»-стиль соединяет вместе элементы таких музыкальных направлений, как рок, соул, фанк, регги, хард-рок, психоделия, фолк и баллады. Четыре года подряд (с 1999 по 2002) становился обладателем премии 'Грэмми' в номинации «Лучшее мужское рок-выступление» («Best Male Rock Vocal Performance»). Суммарный тираж его записей превышает 30 миллионов копий. Ленни Кравитц родился 26 мая 1964 года в Нью-Йорке. Его родители имели непосредственное отношение к миру шоу-бизнеса, поэтому неудивительно, что их ребёнок вырос столь способным и талантливым. Его отец Сай Кравиц был украинским евреем и занимался телепродюсированием, а мать - чернокожая уроженка Багам - была актрисой. Будущая знаменитость с детства увлекалась музыкой. Этому всячески способствовали и его родители, обеспечивая сына записями Джеймса Брауна, Джимми Хендрикса, Сары Воэн и многих других. Увидев заинтересованность Ленни барабанами, родители не поскупились и подарили своему сыну настоящий инструмент. В 1974 семья переезжает в Лос-Анджелес, где Ленни Кравиц отправляется в калифорнийский хор мальчиков. Самостоятельно он начинает осваивать гитару и клавишные, и уже через несколько лет заканчивает свое музыкальное образование в Beverly Hills School. Помимо гитары, барабанов и клавишных, Ленни еще играет на многих инструментах, среди которых тромбон, саксофон, тамбурин и губная гармошка. В 1985 году Ленни Кравиц знакомится с актрисой Лайзой Бонэ (играла в «Angel Heart»), которая в 1987 году становится его женой. Вскоре при финансовой поддержке своего отца Ленни Кравиц собирает свою студию, где с другом-звукорежиссером записывает дебютный альбом. "Let Love Rule" выходит в 1989 году, и компания Virgin Records, разглядев талант темнокожего исполнителя, подписывает с ним контракт. Параллельно с музыкальным успехом Ленни, в его семейной жизни начинается разлад. В 1991 году супружеская пара расстаётся, а через несколько лет и вовсе разводится. От этого брака у музыканта осталась дочь Зоя. Неприятности личного характера - хороший стимул для творчества. Ленни начинает работать над своим вторым альбомом, где отражает всю боль утраты семейного счастья. Выход альбома "Mama Said" приходится именно на момент расставания - 1991 год. Следующий альбом музыканта "Are you gonna go my way", который выходит в 1993 году, многие склонны считать лучшим. За ним, в 1995 году - следует альбом "Circus", и критики отмечают у исполнителя явный кризис жанра. Ленни Кравиц делает перерыв. Небольшой. Длиной в три года. В 1998 году он выпускает свой пятый альбом, который так и называет "5". В этой работе, в отличие от своих предыдущих альбомов, музыкант использует большое количество различных сэмплов, звуковых технологий и прочих новомодных штучек. Песня "Fly Away" из этого альбома облетает весь мир и получает награду Грэмми в категории «Лучший мужской рок-вокал». Как говорит сам музыкант, эта песня буквально перевернула его жизнь, она была написана очень быстро, к тому времени альбом был уже практически готов. Ленни Кравиц записал ее в течение одного дня и буквально заставил лейбл разместить песню на альбоме, хотя компания и убеждала его, что уже поздно что-либо менять. В 2001 году выходит шестая студийная работа музыканта с одноименным названием. Альбом "Lenny" становится очередной ступенькой певца на его пути к вершинам славы. Скрыть...
Популярные аккорды Lenny Kravitz:
алфавиту | просмотрам | случайно
  • G, A#, F, C x2
    
    
    G           A#             F
    I wish that I could fly, into the sky
       C          G           A#        F   C
    so very high, just like a dragonfly
    G          A#     
      I'll fly above the trees
    F…
  • Standard Tuning: E A D G B e
    
    
    Chords:
    A5	B5	B5/F#  D5   D5/A  Eb5	E5    F#5  		 
    e:-----------------------------------------------
    B:-----------------------------------------------
    G:--------4-----4-----7-----7-----8-----9--------
    D:--7-----4-----4-----7-----7-----8-----9-----4--
    A:--7-----2-----2-----5-----5-----6-----7-----4--
    E:--5-----------2-----------5-----------------2--
    
    
    INTRO:…
  • Intro:
    Asus2	  F#m11
    E	D
    
    
    Verse 1:
    D                          E      F#
    I’ve been searching for you
    I heard a cry within my soul
    I’ve never heard a yearning quite
    Like this before
    Know that you are
    Walking right through…
  • Intro: Single note is a g
    
    Bass enters
    
    -------------------------------------------------------------------------
    -------------------------------------------------------------------------
    -3-3-3-3-3-3-------3-3-3-3-3-3-------------------------------------------
    --------------------------------------3-3-3-3-3-3---0-1-2-3-3-3-3-3-3--6-
    -------------------------------------------------------------------------
    -------------------------------------------------------------------------
    -3-3-3-3-3-3--------3-3-3-3-3-3--5---------------------------------------
    --------------------------------------3-3-3-3-3-3---0-1-2-3-3-3-3-3-3--6-
    
    This…
  • Intro: Bm7 F#m7 C#m7 Bm7 (x 2)
    
    
    |--2----------2----------4----------2--|
    |--2h3--------2----------4h5--------3--|
    |--2----------2----------4----------2--|
    |--2h4--------2----------4h6--------4--|
    |--2----------4----------4----------2--|
    |-------------2------------------------|
    
    
    Riff:
    
    |------------------------2--|
    |--2/3---5---2p0---------3--|
    |------------------2p0---2--|
    |------------------------4--|
    |------------------------2--|
    |---------------------------|…
  • Riff 1: ---- 2x ----
            |-------------------------------------------3----|
            |-------------------------------------------3----|
      G 1   |-2-^4-^2-p0-------------2-^4-^2-p0--------------|
            |------------2---0-2----------------2---0-2------|…
  • Verse:
    D
        Here we are
    Dmaj7		Dsus2
        Still together
               Em Gmin7
      we are one
    D         Dmaj7       Dsus2
      so much time wasted
    	Em          Gmin7
    playing games with love
    
    
    Chorus:
    D			  Dmaj7
    So many tears I've…
  • Standard Tuning: E-A-D-G-B-E
    
    
    The Verses played clean
         G / C                       F                              Eb
    E----3---3-----------------------1------------------------------6----
    B----3---5-----------------------1------------------------------8----
    G----4---5-----------------------2------------------------------8----
    D----5---5-----------------------3------------------------------8----
    A----5---3-----------------------3------------------------------6----
    E----3---3-----------------------1------------------------------6----…
  • intro: G Am
    
    
    G
    Life is just a lonely highway 
    G
    I´m out here on the open road
    Am
    I´m old enough to see behind me
    Am 
    And young enough to feel my soul
    G
    I don´t wanna lose you baby
    G 
    And I don´t…
  • Am                           D
    I'm sorry your situation has let you down
    Am                               D
    I know that things did not go as planned
    F                              Am
    But in this time your feelin alone inside
    F…
  • C#        F#        G#        G#sus4    a#
    E --4--   E --2--   E --4--   E --4--   E --6--
    B --6--   B --2--   B --4--   B --4--   E --6--
    G --6--   G --3--   G --5--   G --6--   E --6--
    D --6--   D --4--   D --6--…
  • Key:	C*	D*	E*	F*	F**	Emaj7*
    	e					1	3		
     	B	5	7	8	10	1	3
    	G	5	7	8	10	2	3
    	D	5	7	8	10	3	5
    	A	3	5	6	8	3	6
    	E					1
    
    
    Intro: G G/F# Em Bm
    
    
          G                             G/F#
    You think I’m cool        but       I am…
  • Intro:
                     
    4/4   1    2      3        4            1
    G--I-----------9-12-12-12-11--7-8----I--9--
    D--I---------------------------------I-----
    A--I---------------------------------I-----
    E--I---------------------------------I-----
    
    
    This…
  • Tuning: EADBGe
    
    
    	MAIN RIFF (played in INTRO, CHORUS and SOLO)
    e|---------------------------------------------------------------------------|
    B|---------------------------------------------------------------------------|
    G|---------------------------------------------------------------------------|
    D|--7-7-7/9-9---------------------REPEATS…
  • Intro:
    																														I am you...       																														If you want it...										
    G-------------------------------------------------------------------------------
    D-----------------------------------------------------------------------9-------
    A----------------------------------------------------------7--5----7-10---10----
    E--5-----1-----5-----1-----5-----1-----3-5-----1-----1/5---------8--------------…
  • INTRO
    E-------------------------------------------------------------------
    B-------------------------------------------------x-x-8-------x-----
    G--5-5--5-5-5---5-5------------5-5--5-5-5---5-5---x-x-8h10p8--x-----
    D--5-5--5-5-5---5-5------------5-5--5-5-5---5-5---------------------
    A--3-3--3-3-3---3-3-------3-3--3-3--3-3-3---3-3---------------------
    E---------------------3h6-------------------------------------------
    
    
    VERSE…
  • Pre-intro: CLEAN
    e|---------------------------- 
    b|---------------------------- 
    G|--6-6-6-6-6-6-6-6-6 
    D|--7-7-7-7-7-7-7-7-7 
    A|--9-9-9-9-9-9-9-9-9 
    E|---------------------------- 
    
    
    Intro: DISTORTION
    e|---------------------------------------------------------…
  • INTRO (play twice):    
    
        A                  Am7               D/A               E7        
    |------------------|-----------------|-----------------|--------------------|
    |-------2----------|-------5---------|--------7--------|-------3------------|
    |-----2---2--------|-----5---5-------|------7---7------|-----1---1----------|
    |---2-------2------|---5-------5-----|----7-------7----|---2-------2--------|
    |-0----------------|-0---------------|--0--------------|-2-----------2------|
    |------------------|-----------------|-----------------|--------------------|…
  • Intro: D b f# G  2x
    
    
    Verse:
    [D] 
    Calling all angels
    [b]                   [f#]           [G]
    I need you near to the ground
    [D] 
    I miss you dearly
    [b]                     [f#]           [G]
    Can you hear me on your cloud?
    
    
    Chorus:
    [G]
    All…
  • Chords:
    C#maj7:  445454   Eb6  668888  Fm  133111  C6  032110
    
    
     Intro/Verse:
     ------------
      Riff1:
       Fm           G# (or Eb6)    C#maj7        C
    e:--------------------------|----------------------------|
    B:-------1------------------|----------------------------|
    G:----1-----1---------5-----|--------5-------------5-----|
    D:-----------------6-----6--|-----6-----6-------5-----5--|
    A:--------------6-----------|--4-------------3-----------|
    E:-1------------------------|----------------------------|…
  • -||-----------||-------------------------------------------||
    -||-----------||-------------------------------------------||
    -||-----------||--7----------------------7----------7/97--||
    -||--x-/--9---||--7---9--9---------------7---9--9---7/97--||
    -||--x-/--9---||--5---9--9---------------5---9--9---5/75--||
    -||--x-/--7---||------7--7--5-7-5-7-5-7------7--7----------||…
  • Verse chords: Em Bm7
    
    
    Chorus:
    
    -----7-7---------7-7----- -----7-7--------7-7-----
    -----8-8---------8-8----- -----7-7--------7-7-----
    -----9-9---------9-9----- -----7-7--------7-7-----
    -----9-9---------9-9----- -----7-7--------7-7-----
    ----(7-7)-------(7-7)----…
  • Intro: C a e E  F d C
    
    
    Verse:
    [C]             [a]
    I don't want to look around
        [e]          [E]
    And be turned to stone
    [F]            [d]  
    All my darkest days 
    [C]       [F]
    awoken
    [C]               [a]
    I'm looking…
  • Intro/verse
    
    e----------------------------(5)(5)-x--x--|--
    b--------8--8--8--8--x--7--x--5--5--x--x--|--
    g--------6--6--6--6--x--6--x--6--6--x--x--|--
    d--------7--7--7--7--x--7--x--7--7--x--x--|--
    a---0-------------------0--------0--x--x--|--
    e-----------------------------------------|--
    
    
    e------------------------------------(5)(5)--x--x--|--
    b----------8--8--8--8--x--7--x--7--x--5--5---x--x--|--
    g----------6--6--6--6--x--6--x--6--x--6--6---x--x--|--
    d----------7--7--7--7--x--7--x--7--x--7--7---x--x--|--
    a--0--0-------------------0-----0--------0---x--x--|--
    e--------------------------------------------------|--
    
    
    e-------8--8--8--8--x-7----(5)(5)-x--x--|--
    b-------8--8--8--8--x-7--x--5--5--x--x--|--
    g-------6--6--6--6--x-6--x--6--6--x--x--|--
    d-------7--7--7--7--x-7--x--7--7--x--x--|--
    a-0--0----------------0--------0--x--x--|--
    e---------------------------------------|--
    
    
    e---------------------------(5)(5)-x--x--|--
    b-------8--8--8--8--x--7--x--5--5--x--x--|--
    g-------6--6--6--6--x--6--x--6--6--x--x--|--
    d-------7--7--7--7--x--7--x--7--7--x--x--|--
    a--0--0----------------------------x--x--|--
    e----------------------------------------|--
    
    
    e--------8--8--8--8--x--7--x--(5)(5)x--x--|--
    b--------8--8--8--8--x--7--x--5--5--x--x--|--
    g--------6--6--6--6--x--6--x--6--6--x--x--|--
    d--------7--7--7--7--x--7--x--7--7--x--x--|--
    a--0--0-----------------0--------7--x--x--|--
    e-----------------------------------------|--
    
    
    Verse…
  • F#                         A
    Is there anyone out there willing to try?
    E                       D
    Are we satisfied with just getting by?
    F#                       A
    We've hurt mother nature can't you see her she's crying
    E…
  • I know a girl who gets off, by sticking needles in her vein
    E--------------------------------------------------------------------
    B--------------------------------------------------------------------
    G--------------------------------------------------------------------
    D-7-7-7-7-7-7-7-7-7-7-7-7-7-7-7-7-7-7-7-7-7-7-7-7-7-7-7-7------------
    A-5-5-5-5-5-5-5-5-5-5-5-5-5-5-5-5-5-5-5-5-5-5-5-5-5-5-5-5-5-5-5-5-5-5
    E---------------------------------------------------------3-3-3-3-3-3
    
    
    Oh…
  • Chords:
              E a d g b e
        A     0 0 2 2 2 0
        A+    0 0 2 2 2 1
        Gbm/E 0 0 2 2 2 2
        A/G   0 0 2 2 2 3
        D     0 0 0 2 3 2
        Dm7   x x 0 5 6 5
        Dm7+  x x 0 5 6 7
        E     0 2 2 1 0 0
    
    
    Intro: A A+…
  • Intro/Rythym figure 1.(ryth.fig.1. is intro w/out muted strum 
    and slide from 17th fret).  This is two guitars playing 
    together arranged for one guitar:
       
    -Palm Mute-
    E--------------------------------------------------------
    B--X-X-X----------------------------------X/17-17-17-17--
    G--X-X-X----------------------------------X/17-17-17-17--
    D--X-X-X----------------3-----------------X/17-17-17-17--
    A--X-X-X-------------3^5--5^3-------------X/17-17-17-17--
    E---------17--3-4-5----------5^3--3-4-5-----------------
    
    Before…
  • Asus2 base-fret 1 frets X 0 2 2 0 0
    G/A base-fret 1 frets 3 2 0 0 0 3
    D/F# base-fret 1 frets X 0 4 2 3 2
    Dm6 base-fret 1 frets X X 0 2 0 1
    E7 base-fret 1 frets 0 2 2 1 3 0
    C/A base-fret 1 frets X 0 2 0 1 2
    E7b10 base-fret…
  • RIFF
    
    E----------------------------------------------------------------------------------------
    B--------3-5-3-1-------------------------------------------------------------------------
    G----0-2---------2-----0-2-0-------------------------------------------------------------
    D--x-----------------x-----0-------------------------------------------------------------
    A----------------------------------------------------------------------------------------
    E----------------------------------------------------------------------------------------
    
    This…
  • G6                 F#7               Fmaj7             E
    |-------0----------|-------0---------|-------0---------|-------0------------|
    |-----3-----3------|-----2-----2-----|-----1-----1-----|-----0-----0--------|
    |---4---------4----|---3---------3---|---2---------2---|---1---------1------|
    |-5-------------5--|-4-------------4-|-3-------------3-|-2-------------2----|
    |------------------|-----------------|-----------------|--------------------|
    |------------------|-----------------|-----------------|--------------------|
    
    
    cello…
  • E--15-12-15-12-15-12-10-8-------10-8-12-15-12-12-10-8------
    H-------------------------10--------------------------10---
    G----------------------------------------------------------
    D----------------------------------------------------------
    A----------------------------------------------------------
    E----------------------------------------------------------
    
    
    E--20-20-20-17-15-12-13-12-----5-7-8-10-12-15-17-----------
    H------------------------------------------------(10)------
    G----------------------------------------------------------
    D----------------------------------------------------------
    A----------------------------------------------------------
    E----------------------------------------------------------…
  • Tuning: EADG (normal)
    
    
    Intro:
    
    G|---/17-------|
    D|--------/17--|
    A|-------------|
    E|-------------|
    
    
    Main riff:
    
    G|-----------------------|
    D|-----------------------|
    A|-------------3--3---5--|
    E|--3-5-5--3-0-----------|
    
    
    And…
  • There are four parts:
    
    Part A:
    
    ---0----------------x---------------0----------------1-----------------
    ---1----------------3---------------1----------------3-----------------
    ---0---(3)----------2----(3)--------0----(3)---------2----(3)-----------
    ---2----------------0---------------2----------------0------------------
    ---x--------------------------------3-----------------------------------
    ---3--------------------------------x-----------------------------------…
Наверх