Аккорды «Less Than Jake»

Less Than Jake
Состав группы: Chris Demakes - гитара и вокал Roger Manganelli - бас, вокал, гитара Vinnie Fiorello - барабаны Buddy Schaub - тромбон, вокал Peter "JR" Wasilewski - саксофон, вокал Less Than Jake - американская панк-группа из Флориды, образовалась в 1992 году. До Less Than Jake вокалист и гитарист Chris Demakes с барабанщиком Vinnie Fiorello создали группу Good Grief. Учились вместе в школе Порт Шарлотт. Good Grief распалась, когда Chris переехал в ***, поступил в Университет Флориды.… Читать полностью... Состав группы: Chris Demakes - гитара и вокал Roger Manganelli - бас, вокал, гитара Vinnie Fiorello - барабаны Buddy Schaub - тромбон, вокал Peter "JR" Wasilewski - саксофон, вокал Less Than Jake - американская панк-группа из Флориды, образовалась в 1992 году. До Less Than Jake вокалист и гитарист Chris Demakes с барабанщиком Vinnie Fiorello создали группу Good Grief. Учились вместе в школе Порт Шарлотт. Good Grief распалась, когда Chris переехал в ***, поступил в Университет Флориды. В июле 1992 года создали группу Less Than Jake. Shaun переехал в Нью-Йорк, Chris и Vinnie начали писать песни до того, как Vinnie присоединился к Крису. Когда Vinnie присоединился к группе, ребята решили, что им нужен басист. В 1993 году группа начала сотрудничество с Джессикой Миллс. В августе 1995 года вышел дебютный альбом. После выхода альбома группа подписала контракт с лейблом Capitol Records. В 1996 году вышел альбом "Losing Streak". В 1997 году во время турне, саксофонист Jessica Mills покинула группу, через год ее заменила Pete Anna. В это время Vinnie Fiorello образовал свой собственный лейбл. В сентябре 2000 года вышел новый альбом. В 2002 году группа участвовала в турне по Европе вместе с Bad Religion и Hot Water Music. Less Than Jake выпустили сборник "Goodbye Blue and White". В 2003 году Less Than Jake выпустил альбом "Anthem". Весь 2005 года группа провела в работе над записью материала, затем в 2006 году ребята отправились в турне вместе с Catch 22, A Wilhelm Scream, The Loved Ones, The New Mexican Disaster Squad, Rock-n-Roll Soldiers, Damone, Dropkick Murphys, и Far From Finished. В апреле 2006 года вышел мини-альбом "In with the Out Crowd". В феврале 2007 года группа устроила 6 выступлений, затем отправились в Лондон. Летом этого же года отправились в турне вместе с Streetlight Manifesto и Against All Authority. В декабре выступали в Японии. 12 июня 2008 года вышел альбом "GNV FLA". Скрыть...
Популярные аккорды Less Than Jake:
алфавиту | просмотрам | случайно
  • Normal Tuning: E A D G B e
    
    * = harmonic
    
    Intro:
    
          (X2)                   (X3)
        Ring out      |
    - - - - - - - - -   - - - - - - - - - - - -  e
    - - - - - - - - - | - - - - - - - - - - - -  B
    - 1 - 6 - 6 - 3 -   -…
  • INTRO: DISTORTION
         D                            G                   B                     
    E||------------------------|-----------------------|------------------------|
    B||------------------------|-----------------------|------------------------|
    G||--7----7----7--7--7-----|-----------------------|------------------------|
    D||--7----7----7--7--7--5--|------5----5--5--5--5--|--9----9----9--9--9--9--|
    A||--5----5----5--5--5--5--|------5----5--5--5--5--|--9----9----9--9--9--9--|
    E||---------------------3--|------3----3--3--3--3--|--7----7----7--7--7--7--|…
  • Intro 1
              x1                                              x4
    G---------9--*----9------9------9------9------9------9------9------9-------
    D------------*------777----66------------------777----66-------------------
    A---7--------*---------------------99---------------------------77---------
    E------------*-------------------------------------------------------------
    
    Intro…
  • Tuning:EADgbe 
    Slow ska rhythm throughout (note see end for fill over pre chorus)
    
    Intro 
    e|-x-8--x-8--x-5-x-5-x-10-x-10-x-8--x-8-----------------| 
    B|-x-10-x-10-x-5-x-5-x-10-x-10-x-8--x-8-----------------| 
    G|-x-10-x-10-x-5-x-5-x-10-x-10-x-9--x-9-------X2--------|…
  • Tuning: Standard
    
    e|-----------------------|-------------0-------------------------------------|
    B|-----------------------|-------------0-------------------------------------|
    G|-9----9---11---7-------|-9-----------6-------------------------------------|
    D|-x----9---11---7---7---|-9---11--9---7-------------------------------------|
    A|-7----7---9----5---7---|-7---11--9---7-------------------------------------|
    E|-------------------5---|-----9---7---5-------------------------------------|…
  • no1 else had done it, i wanted 2 play it - here it is
    Intro x4		     end 1 x3  end 2 into verse
    
    G---------------------------*--------*------------|
    D-----------4--------6------*7-5-----*------------|
    A----4---55---5---77----7---*---7-5-*-555555-7----|
    E-55--5---------------------*--------*------------|
    
    Verse…
  • Tuning- EADGBE
    
    ------------------------------------------------|
    ------------------------------------------------|
    ---------------------7--------------------------|
    ---7-----------------7--------------------------|
    ---7-----------------5--------------------------|
    ---5--------------------------------------------|
    
    Don't…
  • intro:
    
    1-----------------------------
    2-----------------------------
    3----------------6-6-6-6-6-6-6
    4--3-3-3-3-3-3-3--------------
    
    verse:
    
    1-------------------------------------------------------
    2-------------------------------------------------------
    3------------1-1-1-1-1-1-6-6-6-6-5-5-5-5-3-3-3-3-1-1-1-1
    4--3-3-3-3-3--------------------------------------------
    
    1st…
  • Intro
    
    g:-----------------------------------------------------
    d:-----------------------------------------------------
    a:---------------------------6-7-6---------------------
    e:-----7------7------7------7--------------------------
    
    Verse
    
    g:-----------------------------------------------------
    d:----------------------66-----------------------------
    a:------6-9-6-7-6---7------76---6----------------------
    e:----7-----------9---9-------9------------------------
    
    Chorus
    
    g:-----------------------------------------------------
    d:-----------------------------------------------------
    a:--------7777----7777----------7----------------------
    e:----7777----5555------------------------0(punch)-----
    
    Variation
    
    g:-----------------------------------------------------
    d:---------------------66-6h7p6------------------------
    a:-----6-9-6-7-6---7-----------------------------------
    e:---7-----------9---9----------6-7--------------------
    
    Interlude
    
    g:-----------------------------------------------------
    d:-----------------------------------------------------
    a:----------7----9-7-6-----9-slide---------------------
    e:----7---7------------7-----------down-5555-0000------
    
    Outro
    
    g:-----------------------------------------------------
    d:-----------------------------------------------------
    a:---------7777----7777--------last…
  • Intro
    e|-----------------------------------------------------|
    B|-----------------------------------------------------|
    G|------888-----------6--------------------------------|
    D|-444--888--88-9--44-6--------------------------------|
    A|-444--666--88-9--44-4--------------------------------|
    E|-222-------66-7--22----------------------------------|
    
    e|-----------------------------------------------------|
    B|-----------------------------------------------------|
    G|----------------6-8----------------------------------|
    D|-444444444444---6-8-9--------------------------------|
    A|-444444444444---4-6-9--------------------------------|
    E|-222222222222-------7--------------------------------|
    
    Verse…
  • Intro/verse
    -----------
    F#              D#
    Sunday, Monday, Happy Days, 
    G#	            F		
    Tuesday, Wednesday, Happy Days, 
    Bb                F#
    Thursday, Friday, Happy Days, 
    B     C#  B        C#
    Saturday, what a day,
    F…
  • Standard Tuning
    
    |-------------------------------------------------------------------------------
    |---10---10---10---10---10---10------11---11------8---8---8---8---8---8---11-11-
    |-----10---10---10---10---10---10------10---10-----7---7---7---7---7---7--------
    |-------------------------------------------------------------------------------
    |-------------------------------------------------------------------------------
    |-------------------------------------------------------------------------------
    
    
    |-------------------------------------------------------------------------------
    |----10---10---10---10---10---10-------11---11--------8---8---8---8---8---8-----
    |------10---10---10---10---10---10-------10---10-------7---7---7---7---7---7----
    |-------------------------------------------------------------------------------
    |-------------------------------------------------------------------------------
    |-------------------------------------------------------------------------------
    
    |------------------------|
    |-----11--11--10---------|
    |-------------10---------|
    |------------------------|
    |------------------------|
    |------------------------|…
  • 1 - Intro 1
    2 - ska solo
    3 - Verse
    4 - Chorus
    5 - Intro 2
    6 - verse
    7 - chorus
    8 - Intro 3
    9 - Bridge ( Listen You'll Know It All )
    10 - End Chorus
    
    
    
    *********************************Intros***************************************
    
    
    
    
    
    [Pic…
  • Intro
    
    e|---------------------------------|
    B|---------------------------------|
    G|---------------------------------|
    D|-6-66-66-6-6-68--x2--------------|   
    A|-6-66-66-6-6-68------------------|
    E|-4-44-44-4-4-46------------------|…
  • Intro ( Guitar )
    
    e|----------------------------------------------------------|
    B|----------------------------------------------------------|
    G|-5-4-5-4--------4----5-4-5-4------------------------------|x2
    D|---------7-5-045-545---------7-5-0457545------------------|
    A|----------------------------------------------------------|
    E|----------------------------------------------------------|…
  • ^ - strum
    h - hammer on
    p - pull off
    / - slide
    
    intro
    
    G:------------5-----5----/  repeat this 5 times, then on the
    D:----5---5-3---3--------/  6th finish on the 3rd fret on
    A:--3-------------1---1--/  the D string (first…
  • (riff A)
    e:-----------------------11-15-11-15-----------------------------
    B:---------------------------------------------------------------
    G:---------------------------------------------------------------
    D:0-4-0-4-0-4-0-4-0-4-0-4----------------------------------------
    A:---------------------------------------------------------------
    E:---------------------------------------------------------------…
  • Intro: (Barre Chords - Clean)
    
    A    G      D       A               Bm
    Sit down remind me how this is the same old story of
    
    G               D           A    G     D        A
    growing up and getting lost sit down remind me…
  • Part 1
    
    G:---------------------------------------------------------------
    D:5-54-4---------------------------------------------------5-54-4
    A:------7-75-54-4------7-----4-------4-------4-------4-----------
    E:---------------7-75-5---55---5-555---5-555---5-555---5-5-------
    
    G:---------------------------------------------------------------
    D:-------------------------------7----------------7--------------
    A:7-75-54-4------7----4-------5-5-5----4-------5-5-5----4-------5
    E:---------7-75-5--55---5-333-------55---5-333-------55---5-333--…
  • Intro:
    G: -----------------------------------------
    D:--------------------------------7--7-- 7
    A:17 / 5555-5555-5555-5555--5---5--5
    E: -----------------------------------------
    
    VERSE
    G:----------------------------------------
    D:----------------------------------------…
  • e|--------------------------------------------------------------------|
    B|--------------------------------------------------------------------|
    G|-8--5-------------10---7--------------------------------------------|
    D|-8--5--6---8---6--10---7---8---10-----------------------------------|
    A|-6--3--6---8---6---8---5---8---10-----------------------------------|
    E|-------4---6---4-----------6----8-----------------------------------|…
  • INTRO
    G|-----------9-----------9---------------------9---|
    D|---------7-----------7------------7--------7---7-|
    A|-5-5-5-0-----5-5-5-0-----5-5-5-0-----5-5-5-------|
    E|-------------------------------------------------|
    
    G|-----------9-----------9-----------9---------------|
    D|---------7-----------7-----------7-----------7-7-7-|
    A|-5-5-5-0-----5-5-5-0-----5-5-5-0-----5-5-5-0-0-0-0-|
    E|---------------------------------------------------|
    
    G|-------------------------------|
    D|-------------------------------|
    A|-------------4-------4-5-5-5-5-|x3
    E|-5-5-5-5-5-5---7-7-7-----------|
    
    G|-------------------------------|
    D|-7-7-7-7-7-7-------------------|
    A|-------------4-------4-5-5-5-5-|
    E|---------------7-7-7-----------|
    
    VERSE
    G|---------------------------------|
    D|---------------------------------|…
  • Tuning: Standard, Fast Rock ( Verse Ska Style )
    
      Intro
    e|-4-x-4-x-4-x-4-x-4-x-4-x-4-x-4----------------------------------------------|
    B|-5-x-5-x-5-x-5-x-4-x-4-x-4-x-4----------------------------------------------|
    G|-6-x-6-x-6-x-6-x-5-x-5-x-5-x-5----------------------------------------------|
    D|-6-x-6-x-6-x-6-x-6-x-6-x-6-x-6----------------------------------------------|
    A|-4-x-4-x-4-x-4-x-6-x-6-x-6-x-6----------------------------------------------|
    E|-4-x-4-x-4-x-4-x-4-x-4-x-4-x-4----------------------------------------------|…
  • Intro
    E-----------------------------------------------------------------------------
    B-----------------------------------------------------------------------------
    G-66-6-6-66-6---66-6-6-66-6---------------------------------------------------
    A-64-4-4-44-4---44-4-4-44-4---------------------------------------------------
    D-44-4-4-44-4---44-4-4-44-4---44-4-4-44-4---44-4-4-44-4-----------------------
    E-----------------------------11-1-1-11-1---22-2-2-22-2-----------------------
    
    Verse
    E-----------------------------------------------------------------------------
    B-----------------------------------------------------------------------------
    G-----------------------------------------------------------------------------
    A-P.M------------------stop…
  • S1: 
    Intro Riff x1
    e|-------------------------------------------------|
    B|-------------------------------------------------|
    G|---------3------------------------------2--4--3--|
    D|-1---4-------4--3--3--4--3------1---4------------|
    A|----------------------------1--------------------|
    E|-------------------------------------------------|
    
    Verse…
  • * - mute
    h - hammer on
    p - pull off
    
    verse 1
    G:--------------------------------------------------------/
    D:-------------------------------------------9-7-6--------/
    A:-------77----9-9-----77----9-9h11p9--77----------77-7---/
    E:-7--------99-----77-----99---------7----99--------------/
    
    verse…
  • Standard tuning
    
    INTRO/MAIN RIFF
    --------------------------------------------------
    --------------------------------------------------
    -------7------------------------------------------
    --4----7-(3x)--7--------9-------------------------
    --4----5-------7-(2x)---9-(3X)--------------------
    --2------------5--------7-------------------------
    
    VERSE
    --------------------------------------------------
    --------------------------------------------------
    ----------7---------------------------------------
    -4--------7-(4x)--7--------9----------------------
    -4-(4x)---5-------7-(4x)---9-(4X)-----------------
    -2----------------5--------7----------------------
    P.M..............................................
    
    ---------------------------------------------------
    ---------------------------------------------------
    ----------------7----------------------------------
    ----4--------------7-----7---------9---------------
    -------4----5--------------7----------9------------
    -2--------------------5--------7-------------------
    
    CHORUS(not…
  • ------------------------------------------------------------------------------|
    ------------------------------------------------------------------------------|
    -9-9-9-8-9-11-9-8-9---13-13-13-11-13-9-9-9-9-9-11-----------------------------|
    -9-9-9-9-9-11-9-8-9---11-11-11--9-11-7-7-7-7-7--9--x2-------------------------|
    ------------------------------------------------------------------------------|
    ------------------------------------------------------------------------------|…
  • Intro (Barre)
    e|-7--7--7--7--7--7--/-5-5-5-5-5-5-5-5-5-5-5-5-/-3-3-3-3-3-3--|
    B|-10-10-10-10-10-10-/-8-8-8-8-8-8-8-8-8-8-8-8-/-6-6-6-6-6-6--|
    G|-9--9--9--9--9--9--/-7-7-7-7-7-7-7-7-7-7-7-7-/-5-5-5-5-5-5--|
    D|-7--7--7--7--7--7--/-5-5-5-5-5-5-5-5-5-5-5-5-/-3-3-3-3-3-3--|
    A|-7--7--7--7--7--7--/-5-5-5-5-5-5-5-5-5-5-5-5-/-3-3-3-3-3-3--|
    E|-7--7--7--7--7--7--/-5-5-5-5-5-5-5-5-5-5-5-5-/-3-3-3-3-3-3--|
    
    (Cont.)
    e|-7--7--7--7--7--7--/-5-5-5-5-5-5-5-5-5-5-5-5-/-3-3-3-3-3-3--|
    B|-10-10-10-10-10-10-/-8-8-8-8-8-8-8-8-8-8-8-8-/-6-6-6-6-6-6--|
    G|-9--9--9--9--9--9--/-7-7-7-7-7-7-7-7-7-7-7-7-/-5-5-5-5-5-5--|
    D|-7--7--7--7--7--7--/-5-5-5-5-5-5-5-5-5-5-5-5-/-3-3-3-3-3-3--|
    A|-7--7--7--7--7--7--/-5-5-5-5-5-5-5-5-5-5-5-5-/-3-3-3-3-3-3--|
    E|-7--7--7--7--7--7--/-5-5-5-5-5-5-5-5-5-5-5-5-/-3-3-3-3-3-3--|
    
    (Cont.)
    e|-7--7--7--7--7--7-/-9--9--9--9--9--9--/-5-5-5-5-5-5-/-3-3-3-3-3-3--|
    B|-10-10-10-10-10-10/-12-12-12-12-12-12-/-8-8-8-8-8-8-/-6-6-6-6-6-6--|
    G|-9--9--9--9--9--9-/-11-11-11-11-11-11-/-7-7-7-7-7-7-/-5-5-5-5-5-5--|
    D|-7--7--7--7--7--7-/-9--9--9--9--9--9--/-5-5-5-5-5-5-/-3-3-3-3-3-3--|
    A|-7--7--7--7--7--7-/-9--9--9--9--9--9--/-5-5-5-5-5-5-/-3-3-3-3-3-3--|
    E|-7--7--7--7--7--7-/-9--9--9--9--9--9--/-5-5-5-5-5-5-/-3-3-3-3-3-3--|
    
    (Cont.)
    e|-7--7--7--7--7--7--/-5-5-5-5-5-5-5-5-5-5-5-5-/-3-3-3-3-3-3--|
    B|-10-10-10-10-10-10-/-8-8-8-8-8-8-8-8-8-8-8-8-/-6-6-6-6-6-6--|
    G|-9--9--9--9--9--9--/-7-7-7-7-7-7-7-7-7-7-7-7-/-5-5-5-5-5-5--|
    D|-7--7--7--7--7--7--/-5-5-5-5-5-5-5-5-5-5-5-5-/-3-3-3-3-3-3--|
    A|-7--7--7--7--7--7--/-5-5-5-5-5-5-5-5-5-5-5-5-/-3-3-3-3-3-3--|
    E|-7--7--7--7--7--7--/-5-5-5-5-5-5-5-5-5-5-5-5-/-3-3-3-3-3-3--|
    
    Verse…
  • Intro/ Chorus (most of the intro is muted but the chorus is not and you don't
    play the ska chord F in the chorus)
    
    Muted:     C                 G                 A#                  F
     Somethings out there and it takes me…
  • BASS SOLO
    
    Intro x1 (DISTORTION) 
    e|--------------------------------------------------------------------|
    B|--------------------------------------------------------------------|
    G|--------------------------8-8-8-----------------8-8-8-8-8-8---------|
    D|-8-8-8-8-----8-8-86-6-6--8-8-8-8-8-8-8-8-8-6-6-8-8-8-8-8-8---------|
    A|-8-8-8-8-----8-8-86-6-6--6-6-6-8-8-8-8-8-8-6-6-6-6-6-6-6-6---------|
    E|-6-6-6-6-----6-6-64-4-4--------6-6-6-6-6-6-4-4---------------------|
    
    Intro…
  • Intro:
    
       Eb  Cm  Ab  Bb   Eb5 C5  Ab5 Bb5
    |--6---3---4---6-----------------------------------
    |--8---4---4---6-----------------------------------
    |--8---5---5---7----8---5---6---8------------------
    |--8---5---6---8----8---5---6---8------------------
    |--6---3---6---8----6---3---4---6------------------
    |------3---4---6-----------------------------------
    
    if…
  • e|----10---(10h)11-10----13-10----11-10---10--|
    B|-11----11-----------11-------11-------13----|
    G|--------------------------------------------|    x4
    D|--------------------------------------------|
    A|--------------------------------------------|
    E|--------------------------------------------|…
  • HERE ARE THE CHORDS:
    A# D#
    JEN THINKS IT ISNT FAIR THAT I DONT REALLY 
    A# F D#
    CARE IF SHE LIKES ME OR NOT......1234!!!!!!
    A# D#
    JEN DOSENT LIKE TO SETTLE..SHE TREATS 
    A#
    ME LIKE HOWIE REYNOLDS....JEN! SHE 
    F A#
    THINKS IM…
  • INTRO
    
       1.2.3.4. 1.2.3.4. 
    G||--------|--------|
    D||--------|--------|
    A||33333333|44444444|
    E||--------|--------|
    
    
    VERSE
    
    G||--------|--------|--------|--------|--------|--------|--------|--353---|
    D||--------|--------|---8----|--------|--------|--------|6--65--5|3-------|
    A||---3-4/8|-86-4-34|336--3--|-43-4-36|---3-4/8|-86-4-3-|--------|--------|
    E||-4------|--------|--------|--------|44------|--------|--------|------6-|
    
    G||--------|--------|--------|--------|--------|--------|--------|--------|
    D||--------|--3-4-6-|-----3--|--3-4-66|---6----|---8----|--------|--------|
    A||-----3-3|-4------|---3--34|-4------|888--8-8|666--6--|33333333|44444444|
    E||-4-4----|--------|-4------|--------|--------|--------|--------|--------|
    
    G||--------|--------|--------|--------|--------|--------|--------|--------|
    D||--------|--------|---8----|--------|--------|--------|6--65--5|3--3----|
    A||---3-4/8|-86-4-34|336--3--|-43-4-36|---3-4/8|-86-4-3-|--------|----6--6|
    E||-4------|--------|--------|--------|44------|--------|--------|--------|
    
    CHORUS
    
    G||--------|--------|--------|--------|--------|--------|--------|--------|
    D||--------|--------|--------|--------|--------|--------|--------|--------|
    A||-------6|88888666|44444444|44-4-4--|-------6|88888666|33333333|44444444|
    E||4444444-|--------|--------|--------|4444444-|--------|--------|--------|
    
    VERSE…
  • INTRO (x3) (Chords w/ P over them = Palm mute that chord)     
    e|--------------------------2-2-2-----------------------------|
    B|---P-P--------------------3-3-3--P--------------------------|
    G|-7-7-7-----P-P------------2-2-2--7-7---P-P-P--P-----5-5-4-0-|
    D|-7-7-7---7-7-7-------------------7-7-7-7-7-7--5-5---5-------|
    A|-5-5-5---7-7-7-------------------5-5-7-7-7-7--5-5-----------|
    E|---------5-5-5----5h7p5-3------------5-5-5-5--3-3-----------|
    
    VERSE…
  • VERSE 1
    E-------------------------------
    B-------------------------------
    G-------------------------------
    D-9-999999999999-99-999999-9-9--
    A-9-999999999999-99-999999-9-9--
    E-7-777777777777-77-999999-7-7--
      pm............…
  • INTRO
    |-------------------------------------
    |-------------------------------------
    |--6-6-6-6--9-9-9-9--8-8-8-8-8-8-8-8--
    |--6-6-6-6--9-9-9-9--8-8-8-8-8-8-8-8--
    |--4-4-4-4--7-7-7-7--6-6-6-6-6-6-6-6--
    |-------------------------------------
    
    |-------------------------------------
    |-------------------------------------
    |--6-6-6-6--9-9-9-9--8-8-8-8-8-8-8-8--
    |--6-6-6-6--9-9-9-9--8-8-8-8-8-8-8-8--
    |--4-4-4-4--7-7-7-7--6-6-6-6-6-6-6-6--
    |-------------------------------------
    
    |-------------------------------------5555555555555555--
    |-------------------------------------5555555555555555--
    |--6-6-6-6--9-9-9-9--8-8-8-8-8-8-8-8--6666666666666666--
    |--6-6-6-6--9-9-9-9--8-8-8-8-8-8-8-8--7777777777777777--
    |--6-6-6-6--9-9-9-9--8-8-8-8-8-8-8-8--7777777777777777--
    |-------------------------------------5555555555555555--
    
    |-------------------------------------5555555555555555--
    |-------------------------------------5555555555555555--
    |--6-6-6-6--9-9-9-9--8-8-8-8-8-8-8-8--6666666666666666--
    |--6-6-6-6--9-9-9-9--8-8-8-8-8-8-8-8--7777777777777777--
    |--6-6-6-6--9-9-9-9--8-8-8-8-8-8-8-8--7777777777777777--
    |-------------------------------------5555555555555555--
    
    VERSE:…
  • 1st Verse
    So you think of what it could've been...
    e|----------------------------------------------------------|
    B|----------------------------------------------------------|
    G|----------------6---------------------------8-------------|…
  • Verse part 1
    e|-5x5x5x5x5x5x5x5x5x5x5—-3x3x3x3x3x3x3--5x5x5x5x5x5x5--|
    B|-5x5x5x5x5x5x5x5x5x5x5—-3x3x3x3x3x3x3--7x7x7x7x7x7x7--|
    G|-6x6x6x6x6x6x6x6x6x6x6—-4x4x4x4x4x4x4—-7x7x7x7x7x7x7--|
    D|-7x7x7x7x7x7x7x7x7x7x7—-5x5x5x5x5x5x5—-7x7x7x7x7x7x7--|
    A|-7x7x7x7x7x7x7x7x7x7x7—-5x5x5x5x5x5x5--5x5x5x5x5x5x5--|
    E|-5x5x5x5x5x5x5x5x5x5x5--3x3x3x3x3x3x3-----------------|
    
    Verse…
  • Intro/Verse:
        A#  G#  D#  A#
    E---6---4---3---6---|
    B---6---4---4---6---|
    G---7---5---3---7---|
    D---8---6-------8---|
    A-------------------|
    E-------------------|
    
    Bridge:
        G#  C#
    E---4---4---|
    B---4---6---|
    G---5---6---|
    D---6---6---|
    A-----------|
    E-----------|
    
    Chorus:…
  • *: palm mute
    /: slide
    
    Intro(guitar2)
    -------------------------------------------------------------
    -------------------------------------------------------------
    -------------------------------------------------------------
    -----7-----7----------77--7777-------------------------------
    --7--5--7--5--77--77--55--5555-------------------------------
    --5-----5-----55--55-----------------------------------------
    
    Intro(lead…
  • well I thought all my friends were sane....
    ----------------------------|
    ----------------------------|
    --------8--11---------------|
    -11--8--8--11---------------|
    -11--8--6--9----------------|
    -9---6----------------------|
    i…
  • -|-----------------|-----|-33x3x3x3--33x3x3x3---33x3x3x3---11x1x1x1--|-------
    -|-----------------|-----|-55x5x5x5--33x3x3x3---55x5x5x5---11x1x1x1--|-------
    -|-10---9--7--555--|-----|-555x5x5x--44x4x4x4---55x5x5x5---22x2x2x2--|-------
    -|-10---9--7--555--|-----|-55x5x5x5--55x5x5x5---55x5x5x5---33x3x3x3--|-------
    -|--8---7--5--333--|-x4--|-------------------------------------------|-------
    -|-----------------|-----|-------------------------------------------|-------…
  • Riff 1
    G|---------------------------------------------------------------------------|
    D|------4-------44-----------------------------------------------------------|
    A|--555----55------5------2---------4----------------------------------------|
    E|---------------------33---3---55-----5-------------------------------------|
    
    Riff…
  • -|---8---11-----9---8---6h8-8---4---4--------6---4---3h4---|-----------------|
    -|-9---9----9/7---7---7-------2---2---2-2/-4---4---4-----9-|-----------------|
    -|---------------------------------------------------------|-----------------|
    -|---------------------------------------------------------|-----------------|…
  • /: Slide and let the string fade out.
    
    Intro/Verse
    ----------------------------------------------------
    ----------------------------------------------------
    --8--10---------------------------------------------
    --8--10-10-8--6-------------------------------------
    --6--8--10-8--6-------------------------------------
    --------8--6--4-------------------------------------
    
    Chorus
    ----------------------------------------------------
    ----------------------------------------------------
    --8-----6-------------------------------------------
    --8--8--6--6----------------------------------------
    --6--8--4--6----------------------------------------
    -----6-----4----------------------------------------
    
    Verse…
  • Intro (2x)
    
    G:-----------------------------------|-----------------------------------
    D:---------5-3-2------2-3-5----4-5-7-|---------5-3-2---------------------
    A:---2-3-5-------5--3--------5-------|---2-3-5-------5--3333--55-33------
    E:-3---------------------------------|-3---------------------------------
    
    Verse
    
    G:-------------------------------|---------------------------------------
    D:---------5-3-5-----2-------7---|---------5-3-5-----2-------------------
    A:---2-------------3---3---5---5-|---2-------------3---3---5-3-5---------
    E:-3---3-------------------------|-3---3---------------------------------
    
    
    G:-------------------------------|---------------------------------------
    D:---------5-3-5-----2-------7---|---------------------------------------
    A:---2-------------3---3---5---5-|---2-------2-----3333-5-3-2------------
    E:-3---3-------------------------|-3---3---3---3--------------5----------
    
    Verse…
  • ---------------------------------3-5--
    -0-33-33-3--3-55-5-0-3-5------
    ----------------------------------------
    ----------------------------------------
    
    -----------------------35-------------------------------------530----
    -0-33-33-3--3-55-55----5-0-3-5---33-33-3-3-55-55-5-0
    -------------------------------------------------------------------------
    --------------------------------------------------------------------------…
Наверх