Аккорды «Libido»

Libido
Although they occasionally stumble over the course of their debut, Libido has found an intriguing fusion of American and British indie-rock on Killing Some Dead Time. Picking up the spiky, spiteful tunefulness of the edgier Brit-pop bands, Libido tempers their melodies with sheets of noise and poetic lyrics. At times, their pretensions get the better of them, but the best moments of the record demonstrate that the band has considerable potential. Although they occasionally stumble over the course of their debut, Libido has found an intriguing fusion of American and British indie-rock on Killing Some Dead Time. Picking up the spiky, spiteful tunefulness of the edgier Brit-pop bands, Libido tempers their melodies with sheets of noise and poetic lyrics. At times, their pretensions get the better of them, but the best moments of the record demonstrate that the band has considerable potential. Скрыть...
Популярные аккорды Libido:
алфавиту | просмотрам | случайно
  • intro:
    
    -7-7--7--7----5--5-------12~~~-14-
    --7-5--5-------7--7--10----10-----
    ----------------------------------
    ----------------------------------
    ----------------------------------
    ----------------------------------…
  • D          A# 	 
    Regrese jadeando 
    Gm               A 
    al cuello mas delgado
    D	       A#	
    para lamer tus manos
       Gm		   A	
    sigo siendo el vampiro 
    D       A# 
    del amor, 
        Gm    A 
    de tu amor
    
    D              A#
    De las…
  • E-----------4------------4---4-----------------
            B--6-6--4----4----6-6--4---4-4--6-6-4-6-7-8-9--
            G--6-6--4-4---4---6-6--4-----4--6-6-4-6-7-8-9--
            D--6-6--4---------6-6--4-----4--6-6-4-6-7-8-9--…
  • toda la саnсiуn. Em - G - C - C
    
    e---------------------------
    b--0-0--0-0--1-1-1-1--------
    G--0-0--0-0--0-0-0-0--------
    D--2-2--0-0--2-2-2-2--------
    A--2-2--2-2--3-3-3-3--------
    E--0-0--3-3--0-0-0-0--------
    
    e------------------
    b------------------
    G-----7--7s9~~~----
    D------------------
    A------------------
    E------------------
    
    e---------------------------
    b---------------------------…
  • Acordes usados:
       
    G  320033
    B  x24422
    C  x35553
    Cm x35543
    Em 022000
    D  xx0232
    
    p significa Pull
    H significa Hammer
    -----------------------------------------------------
    Riff a       Riff b              Riff c
    e|-------…
  • Nota: Lo que esta en parentesis es la 2da guitarra
    
    Intro:
    5/0,5/2,4/0  E5-E5II-G[d]A[d]...G[d]... - ---E5-G[d]-C5-3/9..3/8.. a destiempo
                  
                (Em.....G.....C.....G.....D - Em.....G.....C.....E5II.E5bII)…
  • (INTRO)
    
      Bm               Cm                 Bm Bm Bm (rapido)
    e--3-------3--------2------2----------3--------------
    b--4----------4-----3----------3------4--------------
    g--5----5-----------4---4-------------5--------------
    d--5----------------4-----------------5--------------
    a--3----------------2-----------------3--------------
    E--3----------------2-----------------3--------------
    
    RIFF…
  • |--------3-----------3----------------3----------3-------
    |-----1------1----1------1---------1------1----1------1--
    |--------------------------------------------------------
    |-----------------------------2--------------------------
    |-3------------------------------------------------------
    |--------------------------------------------------------
    
    |-------------3--------------3------------------------3-------------3----
    |--------3---------3---3----------3-----3-3-3---1--------1---1---------1-
    |---0--------------------------------------------------------------------
    |------------------------------------------------------------------------
    |------------------------------------------------------------------------
    |------------------------------------------------------------------------
    
    C…
  • Acordes:
    
       G
    E|-3-|
    B|-3-|
    D|-0-|
    G|-0-|
    A|-2-|
    E|-3-|
    
    Intro: Em G A C
    
    Estrofa:
    
    Em	   G   A	  C
     Hemos entrado a la casa de los gritos
    Em  G	   A    C
     mientras duermes.
    Em   G	    A	     C
    Criaturas blancas que entran…
  • A#m    A# M
    A#m    A# M
    
    |--7-7-7-7-7-7-7-8
    |--------------------
    |--------------------
    |--------------------
    |--------------------
    |--------------------
    G                D                  Em
    Todo termino entre тъ y yo
    G…
  • despues de la bateria...
      Bm  -  D  -  G  -  A  
    
    e----10-------12_10-12_10-----10---(10)--15-15-
    B-------12-----------------------12------------
    G-11-------11--------------11------------------
    D----------------------------------------------
    A----------------------------------------------
    E----------------------------------------------
    
    e----10-------12_10-12_10-----10---(10)--15-15-
    B-------12-----------------------12------------
    G-11-------11--------------11------------------
    D----------------------------------------------
    A----------------------------------------------
    E----------------------------------------------
    he…
  • la саnсiуn es buena, disfrътеnlа.
    
    INTRO: Gmaj7 , Fmaj#7 , Fmaj7 , Em
    
    VERSO 1:
    Em                G
    Todo el universo somos tu y yo
    C      G      B7         Em   
    Tu sonrisa de бngеl se durmiу.
    VERSO 2:
    Em               G…
  • Acordes:
     Bm   F#m   
    
    Bm                        F#m          A       Em       
    He arrastrado mi cuerpo por un dна mбs
    Bm                        F#m          A       Em       
    Me he perdido en tinieblas y sufro al hablar…
  • Intro:
    
    Se usa la guitarra como violin
    
        Bm                   A                 (4 veces creo)
    E|--2--------------------2----------------------|
    B|----3-5---3---2-3--------3-5---3---2-3--------|
    G|--------4---2----------------4---2------------|
    D|----------------------------------------------|
    A|----------------------------------------------|
    E|----------------------------------------------|
    
    
    
    Verso:…
Наверх