Аккорды «Ligabue»

Ligabue
Лучано Лигабуэ родился 13 марта 1960 года в городке Корреджо. После того как Лучано получил диплом бухгалтера, он брался за самые различные работы, такие как: просто рабочий, ведущий на радио, предприниматель, непосредственно бухгалтер, промоутер, футболист (в низших лигах) и т. д. В 1986 г. он с друзьями организовывает любительскую музыкальную группу Orazero, название которой было взято из песни, с которой они участвовали в различных местных конкурсах. Самыми впоследствии известными композициями,… Читать полностью... Лучано Лигабуэ родился 13 марта 1960 года в городке Корреджо. После того как Лучано получил диплом бухгалтера, он брался за самые различные работы, такие как: просто рабочий, ведущий на радио, предприниматель, непосредственно бухгалтер, промоутер, футболист (в низших лигах) и т. д. В 1986 г. он с друзьями организовывает любительскую музыкальную группу Orazero, название которой было взято из песни, с которой они участвовали в различных местных конкурсах. Самыми впоследствии известными композициями, написанными в этот период, стали Sogni di rock’n'roll, Anime in Plexiglass, Sarà un bel souvenir, Bar Mario и Figlio di un cane. Первыми официальными, а не любительскими работами группы, были 2 сингла (а именно Bar Mario и Anime in Plexiglass), выпущенные в 1987 г., с которыми в году следующем группа выиграла музыкальный конкурс в Reggio Emilia под названием Terremoto Rock. Синглы были выпущены небольшим тиражом и на данный момент являются раритетом. Через некоторое время на Лучано Лигабуэ обратил внимание Pierangelo Bertoli, который включил его песню Sogni di rock’n'roll в один из своих альбомов, посоветовав продюсеру Angelo Carrara попробовать записать с Лигабуэ дебютный альбом. Первый альбом Ligabue вышел в мае 1990 г., для его записи Лучано сотрудничал с участниками группы Clandestino, которые вместе с ним писали аранжировки к песням, присутствовали на концертах и в студии звукозаписи. В этом же году певец принимает участие в таком итальянском конкурсе как Фестивальбар с песней «Balliamo sul mondo», получив приз как лучший молодой музыкант. В ноябре 1991 г. выходит второй альбом «Lambrusco, coltelli, rose e pop-corn», который повторяет успех предыдущего за счет таких хитов как Libera nos a malo и Urlando contro il cielо. Третий альбом «Sopravvissuti e sopravviventi», увидевший свет в 1993 г., так же был записан при участии Clandestino. Несмотря на то, что данный диск был более продуманным и качественным, чем предыдущие, он остался невостребованным и непризнанным критиками, и даже на радио крутили разве что сингл Ho messo via. В скором времени Лучано разрывает свое сотрудничество со старым продюсером и командой. В 1994 г. выходит четвертый по счету альбом «A che ora e' la fine del mondo?», который включал в себя 8 композиций. Некоторые из них имеют довольно интересную историю. Например, песня, давшая название альбому, являлась кавером композиции группы R.E.M. «It’s the end of the world as we know it», косвенно затрагивающая Сильвио Берлускони. Поворот в карьере Лучано произошел в 1995 г. с выходом альбома «Buon compleanno, Elvis!», который сделал рокера любимым и известным по всей Италии. Поти все песни с этого диска стали хитами, особенно композиция Certe notti, которая была признана критиками лучшей итальянской песней 90-х годов. Скрыть...
Популярные аккорды Ligabue:
алфавиту | просмотрам | случайно
  • -||----------------15-15-------------------15-15-------------------14-14------
    -||----------17-17-------17-17-------17-17-------17-17-------17-17------------
    -||----14-14-------------------14-14-------------------14-14------------------
    -||---------------------------------------------------------------------------
    -||---------------------------------------------------------------------------
    -||---------------------------------------------------------------------------…
  • Am 002210
    Em 022000
    G  320033
    D  032010
    B7 021202
    
    Intro
    e---------------------------------------------------------------------
    b----13-12------------------------------------------------15------------
    g----------14-12--------12--------12----------12-------14----14---------…
  • G    320033
    D/F# 2x0033
    C2   032033
    D    x00232
    C    032010
    Em   022000
    Bb   113331
    F    133211
    
    
    Intro riff:
    
    e-------------------------------------------------------------------------------
    B-----------0----0----------0----0----------0----0----------0-------------------
    G---------0----0----0-----0----0----0-----0----0----0-----0---------------------
    D--0h2h3---------------2---------------3---------------2-------2h3--2--0--------
    A-------------------------------------------------------------------------3-----
    E----------------------------------------------------------------------------3--
    
    Verse1
    G…
  • -||--------------|-------------------|--------------|-----------------------|-
    -||-5------5-----|-------------------|-5------5-----|-----------------------|-
    -||---4------4---|-----4--------4----|---4------4---|-------4--------4------|-
    -||-2---2------2-|-1h2----2-1h2----2-|-2---2------2-|---1h2----2-1h2----2---|-
    -||--------------|-------------------|--------------|-----------------------|-
    -||--------------|-------------------|--------------|-----------------------|-…
  • Am        C        F                Am
    Questa qua è per te e anche se non è un granchè 
              C         F           D7           G
    ti volevo solo dire che era qui in fondo a me. 
             Am         C       F…
  • D    XX0232
    E    022100
    E4   022200
    A    X02220
    F#m  244222
    C#m  X46654
    B    X24442
    Bm   X24432
    
    
    D    E    A    D   E   A       D     E
    A
    come vedi sono qua:
          D   E
    Monta su, non ci avranno
    A…
  • Guitar 1 with vibrato effect or pedal
    
    -||--------------------|----------------------------------------------------|-
    -||---3------3-----3---|---3-----3-----3------1---1---1---3-----------------|-
    -||---4--5---4-----4---|---4--5--4------------------------------------------|-
    -||---0--0------5--4---|---0--0-----5-------------------0-------------------|-
    -||--------------------|------------------5---2---3-----------------------|-
    -||--------------------|----------------------------------------------------|-…
  • (INTRO)
    e:7---7--5-7-5-7----3-3-5-7-5-------0-0---7-5-------3-3-3--------------|
    B:0---0-------------3-3-----------1-1-1---5---------1-1-1--------------|
    G:0---0-------------2-2--------0^2--0-0---5---------0-0-0--------------|
    D:0---X-------------0-0-------------2-2---5---------2-2-2--------------|
    A:0---X-----------------------------0-0---X---0-2-3-3-3-3--------------|
    E:3---X-----------------------------0-0---X---------0-0-0--------------|
    
    G…
  • Intro: C  G  Em  F  
      
            C          G       Em              F
    Ci son macchine nascoste e però nascoste male 
            C          G       Em                   F
    e le vedi dondolare al ritmo di chi è lì dentro per…
Наверх